  0
SECTION
  2
HEADER
  9
$ACADVER
  1
AC1015
  9
$HANDSEED
  5
FFFFFFFF
  0
ENDSEC
  0
SECTION
  2
CLASSES
  0
CLASS
  1
ACDBDICTIONARYWDFLT
  2
AcDbDictionaryWithDefault
  3
AutoCAD 2000
  90
0
  280
0
  281
0
  0
CLASS
  1
ACDBPLACEHOLDER
  2
AcDbPlaceHolder
  3
AutoCAD 2000
  90
0
  280
0
  281
0
  0
CLASS
  1
LAYOUT
  2
AcDbLayout
  3
AutoCAD 2000
  90
0
  280
0
  281
0
  0
CLASS
  1
DICTIONARYVAR
  2
AcDbDictionaryVar
  3
AutoCAD 2000
  90
0
  280
0
  281
0
  0
ENDSEC
  0
SECTION
  2
TABLES
  0
TABLE
  2
VPORT
  5
14F
  330
0
  100
AcDbSymbolTable
  70
1
  0
VPORT
  5
150
  330
14F
  100
AcDbSymbolTableRecord
  100
AcDbViewportTableRecord
  2
*Active
  70
0
  10
0
  20
0
  11
1
  21
1
  12
12.7468
  22
7.38583
  13
0
  23
0
  14
0.5
  24
0.5
  15
0.5
  25
0.5
  40
17.514
  74
3
  41
1.45562
  42
50
  43
0
  44
0
  76
0
  75
0
  50
0
  51
0
  71
0
  72
100
  73
1
  77
0
  78
0
  281
0
  65
0
  110
0
  120
0
  130
0
  111
1
  121
0
  131
0
  112
0
  122
1
  132
0
  79
0
  146
0
  0
ENDTAB
  0
TABLE
  2
LTYPE
  5
151
  330
0
  100
AcDbSymbolTable
  70
3
  0
LTYPE
  5
152
  330
151
  100
AcDbSymbolTableRecord
  100
AcDbLinetypeTableRecord
  2
ByLayer
  70
0
  3

  72
65
  73
0
  40
0
  0
LTYPE
  5
153
  330
151
  100
AcDbSymbolTableRecord
  100
AcDbLinetypeTableRecord
  2
ByBlock
  70
0
  3

  72
65
  73
0
  40
0
  0
LTYPE
  5
154
  330
151
  100
AcDbSymbolTableRecord
  100
AcDbLinetypeTableRecord
  2
CONTINUOUS
  70
0
  3
Solid line
  72
65
  73
0
  40
0
  0
ENDTAB
  0
TABLE
  2
LAYER
  5
155
  330
0
  100
AcDbSymbolTable
  70
2
  0
LAYER
  5
156
  330
155
  100
AcDbSymbolTableRecord
  100
AcDbLayerTableRecord
  2
0
  70
0
  62
1
  6
CONTINUOUS
  390
157
  0
LAYER
  5
158
  330
155
  100
AcDbSymbolTableRecord
  100
AcDbLayerTableRecord
  2
7_SAL
  70
0
  62
212
  6
CONTINUOUS
  390
159
  0
ENDTAB
  0
TABLE
  2
STYLE
  5
15A
  330
0
  100
AcDbSymbolTable
  70
1
  0
STYLE
  5
15B
  330
15A
  100
AcDbSymbolTableRecord
  100
AcDbTextStyleTableRecord
  2
Standard
  70
0
  40
0
  41
1
  50
0
  71
0
  3
txt.shx
  0
ENDTAB
  0
TABLE
  2
VIEW
  5
15C
  330
0
  100
AcDbSymbolTable
  70
0
  0
ENDTAB
  0
TABLE
  2
UCS
  5
15D
  330
0
  100
AcDbSymbolTable
  70
0
  0
ENDTAB
  0
TABLE
  2
APPID
  5
15E
  330
0
  100
AcDbSymbolTable
  70
1
  0
APPID
  5
15F
  330
15E
  100
AcDbSymbolTableRecord
  100
AcDbRegAppTableRecord
  2
ACAD
  70
0
  0
ENDTAB
  0
TABLE
  2
DIMSTYLE
  5
160
  330
0
  100
AcDbSymbolTable
  70
1
  100
AcDbDimStyleTable
  71
1
  340
27
  0
DIMSTYLE
  105
161
  330
160
  100
AcDbSymbolTableRecord
  100
AcDbDimStyleTableRecord
  2
Standard
  70
0
  176
0
  371
-2
  46
0
  43
0.38
  281
0
  282
0
  177
0
  372
-2
  44
0.18
  42
0.0625
  75
0
  76
0
  173
0
  41
0.18
  141
0.09
  142
0
  340
11
  178
0
  140
0.18
  146
1
  147
0.09
  145
0
  77
0
  280
0
  74
1
  73
1
  289
3
  174
0
  175
0
  279
0
  40
1
  288
0
  172
0
  277
2
  271
4
  276
0
  278
46
  45
0
  3

  144
1
  78
0
  275
0
  179
0
  79
0
  170
0
  273
2
  171
2
  143
25.4
  148
0
  4

  285
0
  71
0
  72
0
  272
4
  47
0
  48
0
  283
1
  284
0
  274
2
  286
0
  0
ENDTAB
  0
TABLE
  2
BLOCK_RECORD
  5
162
  330
0
  100
AcDbSymbolTable
  70
336
  0
BLOCK_RECORD
  5
163
  330
162
  100
AcDbSymbolTableRecord
  100
AcDbBlockTableRecord
  2
*Model_Space
  340
165
  0
BLOCK_RECORD
  5
164
  330
162
  100
AcDbSymbolTableRecord
  100
AcDbBlockTableRecord
  2
*Paper_Space
  340
166
  0
BLOCK_RECORD
  5
1
  330
162
  100
AcDbSymbolTableRecord
  100
AcDbBlockTableRecord
  2
D12SQUARE1_5X1_5
  340
0
  0
BLOCK_RECORD
  5
2
  330
162
  100
AcDbSymbolTableRecord
  100
AcDbBlockTableRecord
  2
D13ROUND1_2X1_2
  340
0
  0
BLOCK_RECORD
  5
3
  330
162
  100
AcDbSymbolTableRecord
  100
AcDbBlockTableRecord
  2
D14ROUND1_524X1_524
  340
0
  0
BLOCK_RECORD
  5
4
  330
162
  100
AcDbSymbolTableRecord
  100
AcDbBlockTableRecord
  2
D15SQUARE1_524X1_524
  340
0
  0
BLOCK_RECORD
  5
5
  330
162
  100
AcDbSymbolTableRecord
  100
AcDbBlockTableRecord
  2
D16SQUARE1_2X1_2
  340
0
  0
BLOCK_RECORD
  5
6
  330
162
  100
AcDbSymbolTableRecord
  100
AcDbBlockTableRecord
  2
D17ROUND1_5X1_5
  340
0
  0
BLOCK_RECORD
  5
7
  330
162
  100
AcDbSymbolTableRecord
  100
AcDbBlockTableRecord
  2
D18D181_4986X1_4986
  340
0
  0
BLOCK_RECORD
  5
8
  330
162
  100
AcDbSymbolTableRecord
  100
AcDbBlockTableRecord
  2
D19SQUARE1_5X1_5
  340
0
  0
BLOCK_RECORD
  5
9
  330
162
  100
AcDbSymbolTableRecord
  100
AcDbBlockTableRecord
  2
D20ROUND1_5X1_5
  340
0
  0
BLOCK_RECORD
  5
A
  330
162
  100
AcDbSymbolTableRecord
  100
AcDbBlockTableRecord
  2
D21D211_40208X1_40208
  340
0
  0
BLOCK_RECORD
  5
B
  330
162
  100
AcDbSymbolTableRecord
  100
AcDbBlockTableRecord
  2
D22ROUND1_4X1_4
  340
0
  0
BLOCK_RECORD
  5
C
  330
162
  100
AcDbSymbolTableRecord
  100
AcDbBlockTableRecord
  2
D23ROUND3_49999X3_49999
  340
0
  0
BLOCK_RECORD
  5
D
  330
162
  100
AcDbSymbolTableRecord
  100
AcDbBlockTableRecord
  2
D24ROUND2_5X2_5
  340
0
  0
BLOCK_RECORD
  5
E
  330
162
  100
AcDbSymbolTableRecord
  100
AcDbBlockTableRecord
  2
D25SQUARE2_5X2_5
  340
0
  0
BLOCK_RECORD
  5
F
  330
162
  100
AcDbSymbolTableRecord
  100
AcDbBlockTableRecord
  2
D26SQUARE1_2X1_2
  340
0
  0
BLOCK_RECORD
  5
10
  330
162
  100
AcDbSymbolTableRecord
  100
AcDbBlockTableRecord
  2
D27SQUARE1_5X1_5
  340
0
  0
BLOCK_RECORD
  5
11
  330
162
  100
AcDbSymbolTableRecord
  100
AcDbBlockTableRecord
  2
D28SQUARE1_524X1_524
  340
0
  0
BLOCK_RECORD
  5
12
  330
162
  100
AcDbSymbolTableRecord
  100
AcDbBlockTableRecord
  2
D29ROUND3_17499X3_17499
  340
0
  0
BLOCK_RECORD
  5
13
  330
162
  100
AcDbSymbolTableRecord
  100
AcDbBlockTableRecord
  2
D30ROUND1_27X1_27
  340
0
  0
BLOCK_RECORD
  5
14
  330
162
  100
AcDbSymbolTableRecord
  100
AcDbBlockTableRecord
  2
D34RECTANGLE0_3048X0_0254
  340
0
  0
BLOCK_RECORD
  5
15
  330
162
  100
AcDbSymbolTableRecord
  100
AcDbBlockTableRecord
  2
D35RECTANGLE0_4318X0_0254
  340
0
  0
BLOCK_RECORD
  5
16
  330
162
  100
AcDbSymbolTableRecord
  100
AcDbBlockTableRecord
  2
D36RECTANGLE0_635X0_0254
  340
0
  0
BLOCK_RECORD
  5
17
  330
162
  100
AcDbSymbolTableRecord
  100
AcDbBlockTableRecord
  2
D37RECTANGLE0_8382X0_0254
  340
0
  0
BLOCK_RECORD
  5
18
  330
162
  100
AcDbSymbolTableRecord
  100
AcDbBlockTableRecord
  2
D38RECTANGLE1_0668X0_0254
  340
0
  0
BLOCK_RECORD
  5
19
  330
162
  100
AcDbSymbolTableRecord
  100
AcDbBlockTableRecord
  2
D39RECTANGLE1_1684X0_0254
  340
0
  0
BLOCK_RECORD
  5
1A
  330
162
  100
AcDbSymbolTableRecord
  100
AcDbBlockTableRecord
  2
D40RECTANGLE1_3716X0_0254
  340
0
  0
BLOCK_RECORD
  5
1B
  330
162
  100
AcDbSymbolTableRecord
  100
AcDbBlockTableRecord
  2
D41RECTANGLE1_5748X0_0254
  340
0
  0
BLOCK_RECORD
  5
1C
  330
162
  100
AcDbSymbolTableRecord
  100
AcDbBlockTableRecord
  2
D42RECTANGLE1_778X0_0254
  340
0
  0
BLOCK_RECORD
  5
1D
  330
162
  100
AcDbSymbolTableRecord
  100
AcDbBlockTableRecord
  2
D43RECTANGLE1_9304X0_0254
  340
0
  0
BLOCK_RECORD
  5
1E
  330
162
  100
AcDbSymbolTableRecord
  100
AcDbBlockTableRecord
  2
D44RECTANGLE2_159X0_0254
  340
0
  0
BLOCK_RECORD
  5
1F
  330
162
  100
AcDbSymbolTableRecord
  100
AcDbBlockTableRecord
  2
D45RECTANGLE2_3368X0_0254
  340
0
  0
BLOCK_RECORD
  5
20
  330
162
  100
AcDbSymbolTableRecord
  100
AcDbBlockTableRecord
  2
D46RECTANGLE1_1176X0_0254
  340
0
  0
BLOCK_RECORD
  5
21
  330
162
  100
AcDbSymbolTableRecord
  100
AcDbBlockTableRecord
  2
D47RECTANGLE1_1938X0_0254
  340
0
  0
BLOCK_RECORD
  5
22
  330
162
  100
AcDbSymbolTableRecord
  100
AcDbBlockTableRecord
  2
D48RECTANGLE1_143X0_0254
  340
0
  0
BLOCK_RECORD
  5
23
  330
162
  100
AcDbSymbolTableRecord
  100
AcDbBlockTableRecord
  2
D49RECTANGLE1_2192X0_0254
  340
0
  0
BLOCK_RECORD
  5
24
  330
162
  100
AcDbSymbolTableRecord
  100
AcDbBlockTableRecord
  2
D50RECTANGLE1_0922X0_0254
  340
0
  0
BLOCK_RECORD
  5
25
  330
162
  100
AcDbSymbolTableRecord
  100
AcDbBlockTableRecord
  2
D51RECTANGLE0_9906X0_0254
  340
0
  0
BLOCK_RECORD
  5
26
  330
162
  100
AcDbSymbolTableRecord
  100
AcDbBlockTableRecord
  2
D52RECTANGLE1_0414X0_0254
  340
0
  0
BLOCK_RECORD
  5
27
  330
162
  100
AcDbSymbolTableRecord
  100
AcDbBlockTableRecord
  2
D53RECTANGLE0_9144X0_0254
  340
0
  0
BLOCK_RECORD
  5
28
  330
162
  100
AcDbSymbolTableRecord
  100
AcDbBlockTableRecord
  2
D54RECTANGLE0_7874X0_0254
  340
0
  0
BLOCK_RECORD
  5
29
  330
162
  100
AcDbSymbolTableRecord
  100
AcDbBlockTableRecord
  2
D55RECTANGLE0_8636X0_0254
  340
0
  0
BLOCK_RECORD
  5
2A
  330
162
  100
AcDbSymbolTableRecord
  100
AcDbBlockTableRecord
  2
D56RECTANGLE0_7366X0_0254
  340
0
  0
BLOCK_RECORD
  5
2B
  330
162
  100
AcDbSymbolTableRecord
  100
AcDbBlockTableRecord
  2
D57RECTANGLE0_6604X0_0254
  340
0
  0
BLOCK_RECORD
  5
2C
  330
162
  100
AcDbSymbolTableRecord
  100
AcDbBlockTableRecord
  2
D58RECTANGLE0_6096X0_0254
  340
0
  0
BLOCK_RECORD
  5
2D
  330
162
  100
AcDbSymbolTableRecord
  100
AcDbBlockTableRecord
  2
D59RECTANGLE0_762X0_0254
  340
0
  0
BLOCK_RECORD
  5
2E
  330
162
  100
AcDbSymbolTableRecord
  100
AcDbBlockTableRecord
  2
D60RECTANGLE0_5588X0_0254
  340
0
  0
BLOCK_RECORD
  5
2F
  330
162
  100
AcDbSymbolTableRecord
  100
AcDbBlockTableRecord
  2
D61RECTANGLE0_889X0_0254
  340
0
  0
BLOCK_RECORD
  5
30
  330
162
  100
AcDbSymbolTableRecord
  100
AcDbBlockTableRecord
  2
D62RECTANGLE0_3556X0_0254
  340
0
  0
BLOCK_RECORD
  5
31
  330
162
  100
AcDbSymbolTableRecord
  100
AcDbBlockTableRecord
  2
D63RECTANGLE0_9398X0_0254
  340
0
  0
BLOCK_RECORD
  5
32
  330
162
  100
AcDbSymbolTableRecord
  100
AcDbBlockTableRecord
  2
D64RECTANGLE0_2794X0_0254
  340
0
  0
BLOCK_RECORD
  5
33
  330
162
  100
AcDbSymbolTableRecord
  100
AcDbBlockTableRecord
  2
D65RECTANGLE0_9652X0_0254
  340
0
  0
BLOCK_RECORD
  5
34
  330
162
  100
AcDbSymbolTableRecord
  100
AcDbBlockTableRecord
  2
D66RECTANGLE0_0762X0_0254
  340
0
  0
BLOCK_RECORD
  5
35
  330
162
  100
AcDbSymbolTableRecord
  100
AcDbBlockTableRecord
  2
D67RECTANGLE0_2032X0_0254
  340
0
  0
BLOCK_RECORD
  5
36
  330
162
  100
AcDbSymbolTableRecord
  100
AcDbBlockTableRecord
  2
D68RECTANGLE0_3302X0_0254
  340
0
  0
BLOCK_RECORD
  5
37
  330
162
  100
AcDbSymbolTableRecord
  100
AcDbBlockTableRecord
  2
D69RECTANGLE0_4826X0_0254
  340
0
  0
BLOCK_RECORD
  5
38
  330
162
  100
AcDbSymbolTableRecord
  100
AcDbBlockTableRecord
  2
D70RECTANGLE0_381X0_0254
  340
0
  0
BLOCK_RECORD
  5
39
  330
162
  100
AcDbSymbolTableRecord
  100
AcDbBlockTableRecord
  2
D71RECTANGLE0_6858X0_0254
  340
0
  0
BLOCK_RECORD
  5
3A
  330
162
  100
AcDbSymbolTableRecord
  100
AcDbBlockTableRecord
  2
D72RECTANGLE0_0508X0_0254
  340
0
  0
BLOCK_RECORD
  5
3B
  330
162
  100
AcDbSymbolTableRecord
  100
AcDbBlockTableRecord
  2
D73RECTANGLE0_5334X0_0254
  340
0
  0
BLOCK_RECORD
  5
3C
  330
162
  100
AcDbSymbolTableRecord
  100
AcDbBlockTableRecord
  2
D74RECTANGLE0_1778X0_0254
  340
0
  0
BLOCK_RECORD
  5
3D
  330
162
  100
AcDbSymbolTableRecord
  100
AcDbBlockTableRecord
  2
D75RECTANGLE0_8128X0_0254
  340
0
  0
BLOCK_RECORD
  5
3E
  330
162
  100
AcDbSymbolTableRecord
  100
AcDbBlockTableRecord
  2
D76RECTANGLE0_5842X0_0254
  340
0
  0
BLOCK_RECORD
  5
3F
  330
162
  100
AcDbSymbolTableRecord
  100
AcDbBlockTableRecord
  2
D77RECTANGLE0_254X0_0254
  340
0
  0
BLOCK_RECORD
  5
40
  330
162
  100
AcDbSymbolTableRecord
  100
AcDbBlockTableRecord
  2
D78RECTANGLE0_4572X0_0254
  340
0
  0
BLOCK_RECORD
  5
41
  330
162
  100
AcDbSymbolTableRecord
  100
AcDbBlockTableRecord
  2
D79RECTANGLE1_016X0_0254
  340
0
  0
BLOCK_RECORD
  5
42
  330
162
  100
AcDbSymbolTableRecord
  100
AcDbBlockTableRecord
  2
D80RECTANGLE0_1524X0_0254
  340
0
  0
BLOCK_RECORD
  5
43
  330
162
  100
AcDbSymbolTableRecord
  100
AcDbBlockTableRecord
  2
D81RECTANGLE1_8796X0_0254
  340
0
  0
BLOCK_RECORD
  5
44
  330
162
  100
AcDbSymbolTableRecord
  100
AcDbBlockTableRecord
  2
D82RECTANGLE1_27X0_0254
  340
0
  0
BLOCK_RECORD
  5
45
  330
162
  100
AcDbSymbolTableRecord
  100
AcDbBlockTableRecord
  2
D83RECTANGLE0_4064X0_0254
  340
0
  0
BLOCK_RECORD
  5
46
  330
162
  100
AcDbSymbolTableRecord
  100
AcDbBlockTableRecord
  2
D84RECTANGLE0_508X0_0254
  340
0
  0
BLOCK_RECORD
  5
47
  330
162
  100
AcDbSymbolTableRecord
  100
AcDbBlockTableRecord
  2
D85RECTANGLE1_8288X0_0254
  340
0
  0
BLOCK_RECORD
  5
48
  330
162
  100
AcDbSymbolTableRecord
  100
AcDbBlockTableRecord
  2
D86RECTANGLE1_651X0_0254
  340
0
  0
BLOCK_RECORD
  5
49
  330
162
  100
AcDbSymbolTableRecord
  100
AcDbBlockTableRecord
  2
D87RECTANGLE1_524X0_0254
  340
0
  0
BLOCK_RECORD
  5
4A
  330
162
  100
AcDbSymbolTableRecord
  100
AcDbBlockTableRecord
  2
D88RECTANGLE1_3462X0_0254
  340
0
  0
BLOCK_RECORD
  5
4B
  330
162
  100
AcDbSymbolTableRecord
  100
AcDbBlockTableRecord
  2
D89RECTANGLE0_1016X0_0254
  340
0
  0
BLOCK_RECORD
  5
4C
  330
162
  100
AcDbSymbolTableRecord
  100
AcDbBlockTableRecord
  2
D90RECTANGLE0_7112X0_0254
  340
0
  0
BLOCK_RECORD
  5
4D
  330
162
  100
AcDbSymbolTableRecord
  100
AcDbBlockTableRecord
  2
D91RECTANGLE1_4224X0_0254
  340
0
  0
BLOCK_RECORD
  5
4E
  330
162
  100
AcDbSymbolTableRecord
  100
AcDbBlockTableRecord
  2
D92RECTANGLE1_4986X0_0254
  340
0
  0
BLOCK_RECORD
  5
4F
  330
162
  100
AcDbSymbolTableRecord
  100
AcDbBlockTableRecord
  2
D93RECTANGLE1_6256X0_0254
  340
0
  0
BLOCK_RECORD
  5
50
  330
162
  100
AcDbSymbolTableRecord
  100
AcDbBlockTableRecord
  2
D94RECTANGLE0_2286X0_0254
  340
0
  0
BLOCK_RECORD
  5
51
  330
162
  100
AcDbSymbolTableRecord
  100
AcDbBlockTableRecord
  2
D95RECTANGLE0_127X0_0254
  340
0
  0
BLOCK_RECORD
  5
52
  330
162
  100
AcDbSymbolTableRecord
  100
AcDbBlockTableRecord
  2
D96RECTANGLE1_4732X0_0254
  340
0
  0
BLOCK_RECORD
  5
53
  330
162
  100
AcDbSymbolTableRecord
  100
AcDbBlockTableRecord
  2
D97RECTANGLE1_3208X0_0254
  340
0
  0
BLOCK_RECORD
  5
54
  330
162
  100
AcDbSymbolTableRecord
  100
AcDbBlockTableRecord
  2
D98RECTANGLE1_2446X0_0254
  340
0
  0
BLOCK_RECORD
  5
55
  330
162
  100
AcDbSymbolTableRecord
  100
AcDbBlockTableRecord
  2
D100RECTANGLE26_7969X0_2286
  340
0
  0
BLOCK_RECORD
  5
56
  330
162
  100
AcDbSymbolTableRecord
  100
AcDbBlockTableRecord
  2
D101RECTANGLE5_58799X0_0254
  340
0
  0
BLOCK_RECORD
  5
57
  330
162
  100
AcDbSymbolTableRecord
  100
AcDbBlockTableRecord
  2
D102RECTANGLE15_1384X0_0254
  340
0
  0
BLOCK_RECORD
  5
58
  330
162
  100
AcDbSymbolTableRecord
  100
AcDbBlockTableRecord
  2
D103RECTANGLE5_66419X0_0254
  340
0
  0
BLOCK_RECORD
  5
59
  330
162
  100
AcDbSymbolTableRecord
  100
AcDbBlockTableRecord
  2
D104RECTANGLE5_51179X0_0254
  340
0
  0
BLOCK_RECORD
  5
5A
  330
162
  100
AcDbSymbolTableRecord
  100
AcDbBlockTableRecord
  2
D105RECTANGLE14_986X0_0254
  340
0
  0
BLOCK_RECORD
  5
5B
  330
162
  100
AcDbSymbolTableRecord
  100
AcDbBlockTableRecord
  2
D106RECTANGLE5_43559X0_0254
  340
0
  0
BLOCK_RECORD
  5
5C
  330
162
  100
AcDbSymbolTableRecord
  100
AcDbBlockTableRecord
  2
D107RECTANGLE14_8082X0_0254
  340
0
  0
BLOCK_RECORD
  5
5D
  330
162
  100
AcDbSymbolTableRecord
  100
AcDbBlockTableRecord
  2
D108RECTANGLE5_56259X0_0254
  340
0
  0
BLOCK_RECORD
  5
5E
  330
162
  100
AcDbSymbolTableRecord
  100
AcDbBlockTableRecord
  2
D109RECTANGLE5_38479X0_0254
  340
0
  0
BLOCK_RECORD
  5
5F
  330
162
  100
AcDbSymbolTableRecord
  100
AcDbBlockTableRecord
  2
D110RECTANGLE14_7574X0_0254
  340
0
  0
BLOCK_RECORD
  5
60
  330
162
  100
AcDbSymbolTableRecord
  100
AcDbBlockTableRecord
  2
D111RECTANGLE5_33399X0_0254
  340
0
  0
BLOCK_RECORD
  5
61
  330
162
  100
AcDbSymbolTableRecord
  100
AcDbBlockTableRecord
  2
D112RECTANGLE14_6812X0_0254
  340
0
  0
BLOCK_RECORD
  5
62
  330
162
  100
AcDbSymbolTableRecord
  100
AcDbBlockTableRecord
  2
D113RECTANGLE5_51179X0_0508
  340
0
  0
BLOCK_RECORD
  5
63
  330
162
  100
AcDbSymbolTableRecord
  100
AcDbBlockTableRecord
  2
D114RECTANGLE5_30859X0_0254
  340
0
  0
BLOCK_RECORD
  5
64
  330
162
  100
AcDbSymbolTableRecord
  100
AcDbBlockTableRecord
  2
D115RECTANGLE14_6558X0_0254
  340
0
  0
BLOCK_RECORD
  5
65
  330
162
  100
AcDbSymbolTableRecord
  100
AcDbBlockTableRecord
  2
D116RECTANGLE5_25779X0_0254
  340
0
  0
BLOCK_RECORD
  5
66
  330
162
  100
AcDbSymbolTableRecord
  100
AcDbBlockTableRecord
  2
D117RECTANGLE14_605X0_0254
  340
0
  0
BLOCK_RECORD
  5
67
  330
162
  100
AcDbSymbolTableRecord
  100
AcDbBlockTableRecord
  2
D118RECTANGLE5_23239X0_0254
  340
0
  0
BLOCK_RECORD
  5
68
  330
162
  100
AcDbSymbolTableRecord
  100
AcDbBlockTableRecord
  2
D119RECTANGLE14_5796X0_0254
  340
0
  0
BLOCK_RECORD
  5
69
  330
162
  100
AcDbSymbolTableRecord
  100
AcDbBlockTableRecord
  2
D120RECTANGLE5_48639X0_0762
  340
0
  0
BLOCK_RECORD
  5
6A
  330
162
  100
AcDbSymbolTableRecord
  100
AcDbBlockTableRecord
  2
D121RECTANGLE14_5542X0_0254
  340
0
  0
BLOCK_RECORD
  5
6B
  330
162
  100
AcDbSymbolTableRecord
  100
AcDbBlockTableRecord
  2
D122RECTANGLE5_20699X0_0508
  340
0
  0
BLOCK_RECORD
  5
6C
  330
162
  100
AcDbSymbolTableRecord
  100
AcDbBlockTableRecord
  2
D123RECTANGLE14_5288X0_0254
  340
0
  0
BLOCK_RECORD
  5
6D
  330
162
  100
AcDbSymbolTableRecord
  100
AcDbBlockTableRecord
  2
D124RECTANGLE5_94359X0_0508
  340
0
  0
BLOCK_RECORD
  5
6E
  330
162
  100
AcDbSymbolTableRecord
  100
AcDbBlockTableRecord
  2
D125RECTANGLE6_19759X0_0254
  340
0
  0
BLOCK_RECORD
  5
6F
  330
162
  100
AcDbSymbolTableRecord
  100
AcDbBlockTableRecord
  2
D126RECTANGLE6_98499X0_0254
  340
0
  0
BLOCK_RECORD
  5
70
  330
162
  100
AcDbSymbolTableRecord
  100
AcDbBlockTableRecord
  2
D127RECTANGLE2_0574X0_0254
  340
0
  0
BLOCK_RECORD
  5
71
  330
162
  100
AcDbSymbolTableRecord
  100
AcDbBlockTableRecord
  2
D128RECTANGLE2_4638X0_0254
  340
0
  0
BLOCK_RECORD
  5
72
  330
162
  100
AcDbSymbolTableRecord
  100
AcDbBlockTableRecord
  2
D129RECTANGLE2_2098X0_0254
  340
0
  0
BLOCK_RECORD
  5
73
  330
162
  100
AcDbSymbolTableRecord
  100
AcDbBlockTableRecord
  2
D130RECTANGLE1_7526X0_0254
  340
0
  0
BLOCK_RECORD
  5
74
  330
162
  100
AcDbSymbolTableRecord
  100
AcDbBlockTableRecord
  2
D131RECTANGLE2_032X0_0254
  340
0
  0
BLOCK_RECORD
  5
75
  330
162
  100
AcDbSymbolTableRecord
  100
AcDbBlockTableRecord
  2
D132RECTANGLE0_6604X0_0508
  340
0
  0
BLOCK_RECORD
  5
76
  330
162
  100
AcDbSymbolTableRecord
  100
AcDbBlockTableRecord
  2
D133RECTANGLE0_635X0_0508
  340
0
  0
BLOCK_RECORD
  5
77
  330
162
  100
AcDbSymbolTableRecord
  100
AcDbBlockTableRecord
  2
D134RECTANGLE0_4572X0_0508
  340
0
  0
BLOCK_RECORD
  5
78
  330
162
  100
AcDbSymbolTableRecord
  100
AcDbBlockTableRecord
  2
D135RECTANGLE1_7018X0_0254
  340
0
  0
BLOCK_RECORD
  5
79
  330
162
  100
AcDbSymbolTableRecord
  100
AcDbBlockTableRecord
  2
D136RECTANGLE0_5334X0_0508
  340
0
  0
BLOCK_RECORD
  5
7A
  330
162
  100
AcDbSymbolTableRecord
  100
AcDbBlockTableRecord
  2
D137RECTANGLE0_4064X0_0508
  340
0
  0
BLOCK_RECORD
  5
7B
  330
162
  100
AcDbSymbolTableRecord
  100
AcDbBlockTableRecord
  2
D138RECTANGLE1_778X0_0508
  340
0
  0
BLOCK_RECORD
  5
7C
  330
162
  100
AcDbSymbolTableRecord
  100
AcDbBlockTableRecord
  2
D139SQUARE0_0254X0_0254
  340
0
  0
BLOCK_RECORD
  5
7D
  330
162
  100
AcDbSymbolTableRecord
  100
AcDbBlockTableRecord
  2
D140RECTANGLE0_4826X0_0508
  340
0
  0
BLOCK_RECORD
  5
7E
  330
162
  100
AcDbSymbolTableRecord
  100
AcDbBlockTableRecord
  2
D141RECTANGLE1_7272X0_0508
  340
0
  0
BLOCK_RECORD
  5
7F
  330
162
  100
AcDbSymbolTableRecord
  100
AcDbBlockTableRecord
  2
D142RECTANGLE0_7112X0_0508
  340
0
  0
BLOCK_RECORD
  5
80
  330
162
  100
AcDbSymbolTableRecord
  100
AcDbBlockTableRecord
  2
D143RECTANGLE1_6764X0_0254
  340
0
  0
BLOCK_RECORD
  5
81
  330
162
  100
AcDbSymbolTableRecord
  100
AcDbBlockTableRecord
  2
D144RECTANGLE1_6002X0_0508
  340
0
  0
BLOCK_RECORD
  5
82
  330
162
  100
AcDbSymbolTableRecord
  100
AcDbBlockTableRecord
  2
D145RECTANGLE0_762X0_0508
  340
0
  0
BLOCK_RECORD
  5
83
  330
162
  100
AcDbSymbolTableRecord
  100
AcDbBlockTableRecord
  2
D146RECTANGLE0_6858X0_0508
  340
0
  0
BLOCK_RECORD
  5
84
  330
162
  100
AcDbSymbolTableRecord
  100
AcDbBlockTableRecord
  2
D147RECTANGLE0_9144X0_0508
  340
0
  0
BLOCK_RECORD
  5
85
  330
162
  100
AcDbSymbolTableRecord
  100
AcDbBlockTableRecord
  2
D148RECTANGLE0_4318X0_0762
  340
0
  0
BLOCK_RECORD
  5
86
  330
162
  100
AcDbSymbolTableRecord
  100
AcDbBlockTableRecord
  2
D149RECTANGLE0_9652X0_0508
  340
0
  0
BLOCK_RECORD
  5
87
  330
162
  100
AcDbSymbolTableRecord
  100
AcDbBlockTableRecord
  2
D150RECTANGLE1_1176X0_0508
  340
0
  0
BLOCK_RECORD
  5
88
  330
162
  100
AcDbSymbolTableRecord
  100
AcDbBlockTableRecord
  2
D151RECTANGLE1_8034X0_0762
  340
0
  0
BLOCK_RECORD
  5
89
  330
162
  100
AcDbSymbolTableRecord
  100
AcDbBlockTableRecord
  2
D152RECTANGLE0_7366X0_0508
  340
0
  0
BLOCK_RECORD
  5
8A
  330
162
  100
AcDbSymbolTableRecord
  100
AcDbBlockTableRecord
  2
D153RECTANGLE0_2032X0_0508
  340
0
  0
BLOCK_RECORD
  5
8B
  330
162
  100
AcDbSymbolTableRecord
  100
AcDbBlockTableRecord
  2
D154RECTANGLE0_889X0_0508
  340
0
  0
BLOCK_RECORD
  5
8C
  330
162
  100
AcDbSymbolTableRecord
  100
AcDbBlockTableRecord
  2
D155RECTANGLE0_6096X0_0508
  340
0
  0
BLOCK_RECORD
  5
8D
  330
162
  100
AcDbSymbolTableRecord
  100
AcDbBlockTableRecord
  2
D156RECTANGLE0_508X0_0508
  340
0
  0
BLOCK_RECORD
  5
8E
  330
162
  100
AcDbSymbolTableRecord
  100
AcDbBlockTableRecord
  2
D157RECTANGLE1_8542X0_0254
  340
0
  0
BLOCK_RECORD
  5
8F
  330
162
  100
AcDbSymbolTableRecord
  100
AcDbBlockTableRecord
  2
D158RECTANGLE0_3556X0_0508
  340
0
  0
BLOCK_RECORD
  5
90
  330
162
  100
AcDbSymbolTableRecord
  100
AcDbBlockTableRecord
  2
D159RECTANGLE1_5494X0_0254
  340
0
  0
BLOCK_RECORD
  5
91
  330
162
  100
AcDbSymbolTableRecord
  100
AcDbBlockTableRecord
  2
D160RECTANGLE0_4318X0_0508
  340
0
  0
BLOCK_RECORD
  5
92
  330
162
  100
AcDbSymbolTableRecord
  100
AcDbBlockTableRecord
  2
D161RECTANGLE0_9906X0_0762
  340
0
  0
BLOCK_RECORD
  5
93
  330
162
  100
AcDbSymbolTableRecord
  100
AcDbBlockTableRecord
  2
D162RECTANGLE0_2286X0_0508
  340
0
  0
BLOCK_RECORD
  5
94
  330
162
  100
AcDbSymbolTableRecord
  100
AcDbBlockTableRecord
  2
D163RECTANGLE0_1778X0_0508
  340
0
  0
BLOCK_RECORD
  5
95
  330
162
  100
AcDbSymbolTableRecord
  100
AcDbBlockTableRecord
  2
D164RECTANGLE1_524X0_0762
  340
0
  0
BLOCK_RECORD
  5
96
  330
162
  100
AcDbSymbolTableRecord
  100
AcDbBlockTableRecord
  2
D165RECTANGLE0_6604X0_0762
  340
0
  0
BLOCK_RECORD
  5
97
  330
162
  100
AcDbSymbolTableRecord
  100
AcDbBlockTableRecord
  2
D166RECTANGLE1_6002X0_0762
  340
0
  0
BLOCK_RECORD
  5
98
  330
162
  100
AcDbSymbolTableRecord
  100
AcDbBlockTableRecord
  2
D167RECTANGLE1_905X0_0254
  340
0
  0
BLOCK_RECORD
  5
99
  330
162
  100
AcDbSymbolTableRecord
  100
AcDbBlockTableRecord
  2
D168RECTANGLE0_381X0_0762
  340
0
  0
BLOCK_RECORD
  5
9A
  330
162
  100
AcDbSymbolTableRecord
  100
AcDbBlockTableRecord
  2
D169RECTANGLE0_889X0_127
  340
0
  0
BLOCK_RECORD
  5
9B
  330
162
  100
AcDbSymbolTableRecord
  100
AcDbBlockTableRecord
  2
D170RECTANGLE0_8128X0_0508
  340
0
  0
BLOCK_RECORD
  5
9C
  330
162
  100
AcDbSymbolTableRecord
  100
AcDbBlockTableRecord
  2
D171RECTANGLE0_254X0_0508
  340
0
  0
BLOCK_RECORD
  5
9D
  330
162
  100
AcDbSymbolTableRecord
  100
AcDbBlockTableRecord
  2
D172RECTANGLE0_381X0_0508
  340
0
  0
BLOCK_RECORD
  5
9E
  330
162
  100
AcDbSymbolTableRecord
  100
AcDbBlockTableRecord
  2
D173RECTANGLE0_3556X0_1016
  340
0
  0
BLOCK_RECORD
  5
9F
  330
162
  100
AcDbSymbolTableRecord
  100
AcDbBlockTableRecord
  2
D174RECTANGLE0_635X0_1016
  340
0
  0
BLOCK_RECORD
  5
A0
  330
162
  100
AcDbSymbolTableRecord
  100
AcDbBlockTableRecord
  2
D175RECTANGLE0_8636X0_1016
  340
0
  0
BLOCK_RECORD
  5
A1
  330
162
  100
AcDbSymbolTableRecord
  100
AcDbBlockTableRecord
  2
D176RECTANGLE1_5748X0_0508
  340
0
  0
BLOCK_RECORD
  5
A2
  330
162
  100
AcDbSymbolTableRecord
  100
AcDbBlockTableRecord
  2
D177RECTANGLE1_0922X0_0762
  340
0
  0
BLOCK_RECORD
  5
A3
  330
162
  100
AcDbSymbolTableRecord
  100
AcDbBlockTableRecord
  2
D178RECTANGLE1_9558X0_0254
  340
0
  0
BLOCK_RECORD
  5
A4
  330
162
  100
AcDbSymbolTableRecord
  100
AcDbBlockTableRecord
  2
D179RECTANGLE1_397X0_0254
  340
0
  0
BLOCK_RECORD
  5
A5
  330
162
  100
AcDbSymbolTableRecord
  100
AcDbBlockTableRecord
  2
D180RECTANGLE0_2794X0_0508
  340
0
  0
BLOCK_RECORD
  5
A6
  330
162
  100
AcDbSymbolTableRecord
  100
AcDbBlockTableRecord
  2
D181RECTANGLE1_4986X0_1016
  340
0
  0
BLOCK_RECORD
  5
A7
  330
162
  100
AcDbSymbolTableRecord
  100
AcDbBlockTableRecord
  2
D182RECTANGLE0_6096X0_1016
  340
0
  0
BLOCK_RECORD
  5
A8
  330
162
  100
AcDbSymbolTableRecord
  100
AcDbBlockTableRecord
  2
D183RECTANGLE2_0066X0_0254
  340
0
  0
BLOCK_RECORD
  5
A9
  330
162
  100
AcDbSymbolTableRecord
  100
AcDbBlockTableRecord
  2
D184RECTANGLE1_0922X0_1016
  340
0
  0
BLOCK_RECORD
  5
AA
  330
162
  100
AcDbSymbolTableRecord
  100
AcDbBlockTableRecord
  2
D185RECTANGLE0_5334X0_1016
  340
0
  0
BLOCK_RECORD
  5
AB
  330
162
  100
AcDbSymbolTableRecord
  100
AcDbBlockTableRecord
  2
D186RECTANGLE0_2032X0_127
  340
0
  0
BLOCK_RECORD
  5
AC
  330
162
  100
AcDbSymbolTableRecord
  100
AcDbBlockTableRecord
  2
D187RECTANGLE1_0414X0_127
  340
0
  0
BLOCK_RECORD
  5
AD
  330
162
  100
AcDbSymbolTableRecord
  100
AcDbBlockTableRecord
  2
D188RECTANGLE0_4064X0_1016
  340
0
  0
BLOCK_RECORD
  5
AE
  330
162
  100
AcDbSymbolTableRecord
  100
AcDbBlockTableRecord
  2
D189RECTANGLE0_5588X0_127
  340
0
  0
BLOCK_RECORD
  5
AF
  330
162
  100
AcDbSymbolTableRecord
  100
AcDbBlockTableRecord
  2
D190RECTANGLE2_0828X0_0254
  340
0
  0
BLOCK_RECORD
  5
B0
  330
162
  100
AcDbSymbolTableRecord
  100
AcDbBlockTableRecord
  2
D191RECTANGLE0_8382X0_127
  340
0
  0
BLOCK_RECORD
  5
B1
  330
162
  100
AcDbSymbolTableRecord
  100
AcDbBlockTableRecord
  2
D192RECTANGLE0_3556X0_0762
  340
0
  0
BLOCK_RECORD
  5
B2
  330
162
  100
AcDbSymbolTableRecord
  100
AcDbBlockTableRecord
  2
D193RECTANGLE1_0668X0_0508
  340
0
  0
BLOCK_RECORD
  5
B3
  330
162
  100
AcDbSymbolTableRecord
  100
AcDbBlockTableRecord
  2
D194RECTANGLE0_2794X0_1016
  340
0
  0
BLOCK_RECORD
  5
B4
  330
162
  100
AcDbSymbolTableRecord
  100
AcDbBlockTableRecord
  2
D195RECTANGLE1_4732X0_1016
  340
0
  0
BLOCK_RECORD
  5
B5
  330
162
  100
AcDbSymbolTableRecord
  100
AcDbBlockTableRecord
  2
D196RECTANGLE2_1082X0_0254
  340
0
  0
BLOCK_RECORD
  5
B6
  330
162
  100
AcDbSymbolTableRecord
  100
AcDbBlockTableRecord
  2
D197RECTANGLE0_4064X0_2286
  340
0
  0
BLOCK_RECORD
  5
B7
  330
162
  100
AcDbSymbolTableRecord
  100
AcDbBlockTableRecord
  2
D198RECTANGLE0_5842X0_1016
  340
0
  0
BLOCK_RECORD
  5
B8
  330
162
  100
AcDbSymbolTableRecord
  100
AcDbBlockTableRecord
  2
D199RECTANGLE0_3556X0_4318
  340
0
  0
BLOCK_RECORD
  5
B9
  330
162
  100
AcDbSymbolTableRecord
  100
AcDbBlockTableRecord
  2
D200RECTANGLE0_4318X0_1778
  340
0
  0
BLOCK_RECORD
  5
BA
  330
162
  100
AcDbSymbolTableRecord
  100
AcDbBlockTableRecord
  2
D201RECTANGLE0_5588X0_0508
  340
0
  0
BLOCK_RECORD
  5
BB
  330
162
  100
AcDbSymbolTableRecord
  100
AcDbBlockTableRecord
  2
D202RECTANGLE2_1336X0_0254
  340
0
  0
BLOCK_RECORD
  5
BC
  330
162
  100
AcDbSymbolTableRecord
  100
AcDbBlockTableRecord
  2
D203RECTANGLE0_635X0_0762
  340
0
  0
BLOCK_RECORD
  5
BD
  330
162
  100
AcDbSymbolTableRecord
  100
AcDbBlockTableRecord
  2
D204RECTANGLE1_2954X0_0254
  340
0
  0
BLOCK_RECORD
  5
BE
  330
162
  100
AcDbSymbolTableRecord
  100
AcDbBlockTableRecord
  2
D205RECTANGLE0_4064X0_0762
  340
0
  0
BLOCK_RECORD
  5
BF
  330
162
  100
AcDbSymbolTableRecord
  100
AcDbBlockTableRecord
  2
D206RECTANGLE0_508X0_127
  340
0
  0
BLOCK_RECORD
  5
C0
  330
162
  100
AcDbSymbolTableRecord
  100
AcDbBlockTableRecord
  2
D207RECTANGLE0_3048X0_0508
  340
0
  0
BLOCK_RECORD
  5
C1
  330
162
  100
AcDbSymbolTableRecord
  100
AcDbBlockTableRecord
  2
D208RECTANGLE1_0922X0_0508
  340
0
  0
BLOCK_RECORD
  5
C2
  330
162
  100
AcDbSymbolTableRecord
  100
AcDbBlockTableRecord
  2
D209RECTANGLE0_2032X0_1016
  340
0
  0
BLOCK_RECORD
  5
C3
  330
162
  100
AcDbSymbolTableRecord
  100
AcDbBlockTableRecord
  2
D210RECTANGLE0_5842X0_0508
  340
0
  0
BLOCK_RECORD
  5
C4
  330
162
  100
AcDbSymbolTableRecord
  100
AcDbBlockTableRecord
  2
D211RECTANGLE1_4986X0_0762
  340
0
  0
BLOCK_RECORD
  5
C5
  330
162
  100
AcDbSymbolTableRecord
  100
AcDbBlockTableRecord
  2
D212RECTANGLE0_3302X0_0508
  340
0
  0
BLOCK_RECORD
  5
C6
  330
162
  100
AcDbSymbolTableRecord
  100
AcDbBlockTableRecord
  2
D213RECTANGLE0_3302X0_0762
  340
0
  0
BLOCK_RECORD
  5
C7
  330
162
  100
AcDbSymbolTableRecord
  100
AcDbBlockTableRecord
  2
D214RECTANGLE1_3208X0_0508
  340
0
  0
BLOCK_RECORD
  5
C8
  330
162
  100
AcDbSymbolTableRecord
  100
AcDbBlockTableRecord
  2
D215RECTANGLE0_254X0_1016
  340
0
  0
BLOCK_RECORD
  5
C9
  330
162
  100
AcDbSymbolTableRecord
  100
AcDbBlockTableRecord
  2
D216RECTANGLE2_2352X0_0254
  340
0
  0
BLOCK_RECORD
  5
CA
  330
162
  100
AcDbSymbolTableRecord
  100
AcDbBlockTableRecord
  2
D217RECTANGLE0_5334X0_0762
  340
0
  0
BLOCK_RECORD
  5
CB
  330
162
  100
AcDbSymbolTableRecord
  100
AcDbBlockTableRecord
  2
D218RECTANGLE0_5842X0_1524
  340
0
  0
BLOCK_RECORD
  5
CC
  330
162
  100
AcDbSymbolTableRecord
  100
AcDbBlockTableRecord
  2
D219RECTANGLE0_6096X0_2032
  340
0
  0
BLOCK_RECORD
  5
CD
  330
162
  100
AcDbSymbolTableRecord
  100
AcDbBlockTableRecord
  2
D220RECTANGLE2_2606X0_0254
  340
0
  0
BLOCK_RECORD
  5
CE
  330
162
  100
AcDbSymbolTableRecord
  100
AcDbBlockTableRecord
  2
D221RECTANGLE0_6858X0_0762
  340
0
  0
BLOCK_RECORD
  5
CF
  330
162
  100
AcDbSymbolTableRecord
  100
AcDbBlockTableRecord
  2
D222RECTANGLE1_5494X0_2286
  340
0
  0
BLOCK_RECORD
  5
D0
  330
162
  100
AcDbSymbolTableRecord
  100
AcDbBlockTableRecord
  2
D223RECTANGLE2_286X0_0254
  340
0
  0
BLOCK_RECORD
  5
D1
  330
162
  100
AcDbSymbolTableRecord
  100
AcDbBlockTableRecord
  2
D224RECTANGLE0_9398X0_0508
  340
0
  0
BLOCK_RECORD
  5
D2
  330
162
  100
AcDbSymbolTableRecord
  100
AcDbBlockTableRecord
  2
D225RECTANGLE0_4064X0_3048
  340
0
  0
BLOCK_RECORD
  5
D3
  330
162
  100
AcDbSymbolTableRecord
  100
AcDbBlockTableRecord
  2
D226RECTANGLE2_3114X0_0254
  340
0
  0
BLOCK_RECORD
  5
D4
  330
162
  100
AcDbSymbolTableRecord
  100
AcDbBlockTableRecord
  2
D227RECTANGLE2_0574X0_5842
  340
0
  0
BLOCK_RECORD
  5
D5
  330
162
  100
AcDbSymbolTableRecord
  100
AcDbBlockTableRecord
  2
D228RECTANGLE1_143X0_1016
  340
0
  0
BLOCK_RECORD
  5
D6
  330
162
  100
AcDbSymbolTableRecord
  100
AcDbBlockTableRecord
  2
D229RECTANGLE0_8636X0_635
  340
0
  0
BLOCK_RECORD
  5
D7
  330
162
  100
AcDbSymbolTableRecord
  100
AcDbBlockTableRecord
  2
D230RECTANGLE0_6604X0_635
  340
0
  0
BLOCK_RECORD
  5
D8
  330
162
  100
AcDbSymbolTableRecord
  100
AcDbBlockTableRecord
  2
D231RECTANGLE0_1524X0_0508
  340
0
  0
BLOCK_RECORD
  5
D9
  330
162
  100
AcDbSymbolTableRecord
  100
AcDbBlockTableRecord
  2
D232RECTANGLE1_5748X0_0762
  340
0
  0
BLOCK_RECORD
  5
DA
  330
162
  100
AcDbSymbolTableRecord
  100
AcDbBlockTableRecord
  2
D233RECTANGLE1_6002X0_0254
  340
0
  0
BLOCK_RECORD
  5
DB
  330
162
  100
AcDbSymbolTableRecord
  100
AcDbBlockTableRecord
  2
D234RECTANGLE0_6096X0_0762
  340
0
  0
BLOCK_RECORD
  5
DC
  330
162
  100
AcDbSymbolTableRecord
  100
AcDbBlockTableRecord
  2
D235RECTANGLE2_4384X0_0254
  340
0
  0
BLOCK_RECORD
  5
DD
  330
162
  100
AcDbSymbolTableRecord
  100
AcDbBlockTableRecord
  2
D236RECTANGLE3_22579X0_0254
  340
0
  0
BLOCK_RECORD
  5
DE
  330
162
  100
AcDbSymbolTableRecord
  100
AcDbBlockTableRecord
  2
D237RECTANGLE1_1684X0_0508
  340
0
  0
BLOCK_RECORD
  5
DF
  330
162
  100
AcDbSymbolTableRecord
  100
AcDbBlockTableRecord
  2
D238RECTANGLE0_4064X0_1524
  340
0
  0
BLOCK_RECORD
  5
E0
  330
162
  100
AcDbSymbolTableRecord
  100
AcDbBlockTableRecord
  2
D239RECTANGLE5_35939X0_0254
  340
0
  0
BLOCK_RECORD
  5
E1
  330
162
  100
AcDbSymbolTableRecord
  100
AcDbBlockTableRecord
  2
D240RECTANGLE0_5588X0_1524
  340
0
  0
BLOCK_RECORD
  5
E2
  330
162
  100
AcDbSymbolTableRecord
  100
AcDbBlockTableRecord
  2
D241RECTANGLE8_05178X0_0508
  340
0
  0
BLOCK_RECORD
  5
E3
  330
162
  100
AcDbSymbolTableRecord
  100
AcDbBlockTableRecord
  2
D242RECTANGLE0_7112X0_127
  340
0
  0
BLOCK_RECORD
  5
E4
  330
162
  100
AcDbSymbolTableRecord
  100
AcDbBlockTableRecord
  2
D243RECTANGLE1_1938X0_0508
  340
0
  0
BLOCK_RECORD
  5
E5
  330
162
  100
AcDbSymbolTableRecord
  100
AcDbBlockTableRecord
  2
D244RECTANGLE5_33399X0_0508
  340
0
  0
BLOCK_RECORD
  5
E6
  330
162
  100
AcDbSymbolTableRecord
  100
AcDbBlockTableRecord
  2
D245RECTANGLE0_508X0_1778
  340
0
  0
BLOCK_RECORD
  5
E7
  330
162
  100
AcDbSymbolTableRecord
  100
AcDbBlockTableRecord
  2
D246RECTANGLE8_07718X0_0508
  340
0
  0
BLOCK_RECORD
  5
E8
  330
162
  100
AcDbSymbolTableRecord
  100
AcDbBlockTableRecord
  2
D247RECTANGLE0_1016X0_0762
  340
0
  0
BLOCK_RECORD
  5
E9
  330
162
  100
AcDbSymbolTableRecord
  100
AcDbBlockTableRecord
  2
D248RECTANGLE1_651X0_0508
  340
0
  0
BLOCK_RECORD
  5
EA
  330
162
  100
AcDbSymbolTableRecord
  100
AcDbBlockTableRecord
  2
D249RECTANGLE8_10258X0_0254
  340
0
  0
BLOCK_RECORD
  5
EB
  330
162
  100
AcDbSymbolTableRecord
  100
AcDbBlockTableRecord
  2
D250RECTANGLE0_7366X0_0762
  340
0
  0
BLOCK_RECORD
  5
EC
  330
162
  100
AcDbSymbolTableRecord
  100
AcDbBlockTableRecord
  2
D251RECTANGLE8_12798X0_0254
  340
0
  0
BLOCK_RECORD
  5
ED
  330
162
  100
AcDbSymbolTableRecord
  100
AcDbBlockTableRecord
  2
D252RECTANGLE0_7112X0_1016
  340
0
  0
BLOCK_RECORD
  5
EE
  330
162
  100
AcDbSymbolTableRecord
  100
AcDbBlockTableRecord
  2
D253SQUARE0_0508X0_0508
  340
0
  0
BLOCK_RECORD
  5
EF
  330
162
  100
AcDbSymbolTableRecord
  100
AcDbBlockTableRecord
  2
D254RECTANGLE1_2192X0_0508
  340
0
  0
BLOCK_RECORD
  5
F0
  330
162
  100
AcDbSymbolTableRecord
  100
AcDbBlockTableRecord
  2
D255RECTANGLE1_7272X0_0254
  340
0
  0
BLOCK_RECORD
  5
F1
  330
162
  100
AcDbSymbolTableRecord
  100
AcDbBlockTableRecord
  2
D256RECTANGLE8_15338X0_0254
  340
0
  0
BLOCK_RECORD
  5
F2
  330
162
  100
AcDbSymbolTableRecord
  100
AcDbBlockTableRecord
  2
D257RECTANGLE3_27659X0_0254
  340
0
  0
BLOCK_RECORD
  5
F3
  330
162
  100
AcDbSymbolTableRecord
  100
AcDbBlockTableRecord
  2
D258RECTANGLE1_2446X0_0508
  340
0
  0
BLOCK_RECORD
  5
F4
  330
162
  100
AcDbSymbolTableRecord
  100
AcDbBlockTableRecord
  2
D259RECTANGLE3_32739X0_0254
  340
0
  0
BLOCK_RECORD
  5
F5
  330
162
  100
AcDbSymbolTableRecord
  100
AcDbBlockTableRecord
  2
D260RECTANGLE2_032X0_0508
  340
0
  0
BLOCK_RECORD
  5
F6
  330
162
  100
AcDbSymbolTableRecord
  100
AcDbBlockTableRecord
  2
D261RECTANGLE3_37819X0_0254
  340
0
  0
BLOCK_RECORD
  5
F7
  330
162
  100
AcDbSymbolTableRecord
  100
AcDbBlockTableRecord
  2
D262RECTANGLE4_85139X0_0762
  340
0
  0
BLOCK_RECORD
  5
F8
  330
162
  100
AcDbSymbolTableRecord
  100
AcDbBlockTableRecord
  2
D263RECTANGLE3_40359X0_0254
  340
0
  0
BLOCK_RECORD
  5
F9
  330
162
  100
AcDbSymbolTableRecord
  100
AcDbBlockTableRecord
  2
D264RECTANGLE0_7112X0_9144
  340
0
  0
BLOCK_RECORD
  5
FA
  330
162
  100
AcDbSymbolTableRecord
  100
AcDbBlockTableRecord
  2
D265RECTANGLE26_7969X0_5588
  340
0
  0
BLOCK_RECORD
  5
FB
  330
162
  100
AcDbSymbolTableRecord
  100
AcDbBlockTableRecord
  2
D266RECTANGLE0_1016X0_0508
  340
0
  0
BLOCK_RECORD
  5
FC
  330
162
  100
AcDbSymbolTableRecord
  100
AcDbBlockTableRecord
  2
D267RECTANGLE0_3556X2_5654
  340
0
  0
BLOCK_RECORD
  5
FD
  330
162
  100
AcDbSymbolTableRecord
  100
AcDbBlockTableRecord
  2
D268RECTANGLE0_2032X2_5654
  340
0
  0
BLOCK_RECORD
  5
FE
  330
162
  100
AcDbSymbolTableRecord
  100
AcDbBlockTableRecord
  2
D269RECTANGLE0_127X2_5654
  340
0
  0
BLOCK_RECORD
  5
FF
  330
162
  100
AcDbSymbolTableRecord
  100
AcDbBlockTableRecord
  2
D270RECTANGLE0_2794X2_5654
  340
0
  0
BLOCK_RECORD
  5
100
  330
162
  100
AcDbSymbolTableRecord
  100
AcDbBlockTableRecord
  2
D271RECTANGLE0_127X2_5146
  340
0
  0
BLOCK_RECORD
  5
101
  330
162
  100
AcDbSymbolTableRecord
  100
AcDbBlockTableRecord
  2
D272RECTANGLE0_381X2_5654
  340
0
  0
BLOCK_RECORD
  5
102
  330
162
  100
AcDbSymbolTableRecord
  100
AcDbBlockTableRecord
  2
D273RECTANGLE0_2032X2_5146
  340
0
  0
BLOCK_RECORD
  5
103
  330
162
  100
AcDbSymbolTableRecord
  100
AcDbBlockTableRecord
  2
D274RECTANGLE0_381X2_5146
  340
0
  0
BLOCK_RECORD
  5
104
  330
162
  100
AcDbSymbolTableRecord
  100
AcDbBlockTableRecord
  2
D275RECTANGLE0_4826X2_5908
  340
0
  0
BLOCK_RECORD
  5
105
  330
162
  100
AcDbSymbolTableRecord
  100
AcDbBlockTableRecord
  2
D276RECTANGLE0_127X2_5908
  340
0
  0
BLOCK_RECORD
  5
106
  330
162
  100
AcDbSymbolTableRecord
  100
AcDbBlockTableRecord
  2
D277RECTANGLE0_1016X2_5908
  340
0
  0
BLOCK_RECORD
  5
107
  330
162
  100
AcDbSymbolTableRecord
  100
AcDbBlockTableRecord
  2
D278RECTANGLE0_2794X2_5908
  340
0
  0
BLOCK_RECORD
  5
108
  330
162
  100
AcDbSymbolTableRecord
  100
AcDbBlockTableRecord
  2
D279RECTANGLE0_254X2_5908
  340
0
  0
BLOCK_RECORD
  5
109
  330
162
  100
AcDbSymbolTableRecord
  100
AcDbBlockTableRecord
  2
D280RECTANGLE0_2032X2_5908
  340
0
  0
BLOCK_RECORD
  5
10A
  330
162
  100
AcDbSymbolTableRecord
  100
AcDbBlockTableRecord
  2
D281RECTANGLE0_1778X2_5908
  340
0
  0
BLOCK_RECORD
  5
10B
  330
162
  100
AcDbSymbolTableRecord
  100
AcDbBlockTableRecord
  2
D282RECTANGLE0_2286X2_5908
  340
0
  0
BLOCK_RECORD
  5
10C
  330
162
  100
AcDbSymbolTableRecord
  100
AcDbBlockTableRecord
  2
D283RECTANGLE0_3556X2_5908
  340
0
  0
BLOCK_RECORD
  5
10D
  330
162
  100
AcDbSymbolTableRecord
  100
AcDbBlockTableRecord
  2
D284RECTANGLE0_381X2_5908
  340
0
  0
BLOCK_RECORD
  5
10E
  330
162
  100
AcDbSymbolTableRecord
  100
AcDbBlockTableRecord
  2
D285RECTANGLE26_7969X0_508
  340
0
  0
BLOCK_RECORD
  5
10F
  330
162
  100
AcDbSymbolTableRecord
  100
AcDbBlockTableRecord
  2
D286RECTANGLE5_74039X0_0254
  340
0
  0
BLOCK_RECORD
  5
110
  330
162
  100
AcDbSymbolTableRecord
  100
AcDbBlockTableRecord
  2
D287RECTANGLE5_84199X0_0254
  340
0
  0
BLOCK_RECORD
  5
111
  330
162
  100
AcDbSymbolTableRecord
  100
AcDbBlockTableRecord
  2
D288RECTANGLE5_94359X0_0254
  340
0
  0
BLOCK_RECORD
  5
112
  330
162
  100
AcDbSymbolTableRecord
  100
AcDbBlockTableRecord
  2
D289RECTANGLE6_01979X0_0254
  340
0
  0
BLOCK_RECORD
  5
113
  330
162
  100
AcDbSymbolTableRecord
  100
AcDbBlockTableRecord
  2
D290RECTANGLE6_12139X0_0254
  340
0
  0
BLOCK_RECORD
  5
114
  330
162
  100
AcDbSymbolTableRecord
  100
AcDbBlockTableRecord
  2
D291RECTANGLE6_17219X0_0254
  340
0
  0
BLOCK_RECORD
  5
115
  330
162
  100
AcDbSymbolTableRecord
  100
AcDbBlockTableRecord
  2
D292RECTANGLE6_24839X0_0254
  340
0
  0
BLOCK_RECORD
  5
116
  330
162
  100
AcDbSymbolTableRecord
  100
AcDbBlockTableRecord
  2
D293RECTANGLE6_29919X0_0254
  340
0
  0
BLOCK_RECORD
  5
117
  330
162
  100
AcDbSymbolTableRecord
  100
AcDbBlockTableRecord
  2
D294RECTANGLE6_37539X0_0254
  340
0
  0
BLOCK_RECORD
  5
118
  330
162
  100
AcDbSymbolTableRecord
  100
AcDbBlockTableRecord
  2
D295RECTANGLE6_42619X0_0254
  340
0
  0
BLOCK_RECORD
  5
119
  330
162
  100
AcDbSymbolTableRecord
  100
AcDbBlockTableRecord
  2
D296RECTANGLE6_47699X0_0254
  340
0
  0
BLOCK_RECORD
  5
11A
  330
162
  100
AcDbSymbolTableRecord
  100
AcDbBlockTableRecord
  2
D297RECTANGLE6_50239X0_0254
  340
0
  0
BLOCK_RECORD
  5
11B
  330
162
  100
AcDbSymbolTableRecord
  100
AcDbBlockTableRecord
  2
D298RECTANGLE6_55319X0_0254
  340
0
  0
BLOCK_RECORD
  5
11C
  330
162
  100
AcDbSymbolTableRecord
  100
AcDbBlockTableRecord
  2
D299RECTANGLE6_60399X0_0254
  340
0
  0
BLOCK_RECORD
  5
11D
  330
162
  100
AcDbSymbolTableRecord
  100
AcDbBlockTableRecord
  2
D300RECTANGLE6_65479X0_0254
  340
0
  0
BLOCK_RECORD
  5
11E
  330
162
  100
AcDbSymbolTableRecord
  100
AcDbBlockTableRecord
  2
D301RECTANGLE6_68019X0_0254
  340
0
  0
BLOCK_RECORD
  5
11F
  330
162
  100
AcDbSymbolTableRecord
  100
AcDbBlockTableRecord
  2
D302RECTANGLE6_70559X0_0254
  340
0
  0
BLOCK_RECORD
  5
120
  330
162
  100
AcDbSymbolTableRecord
  100
AcDbBlockTableRecord
  2
D303RECTANGLE6_75639X0_0254
  340
0
  0
BLOCK_RECORD
  5
121
  330
162
  100
AcDbSymbolTableRecord
  100
AcDbBlockTableRecord
  2
D304RECTANGLE6_78179X0_0254
  340
0
  0
BLOCK_RECORD
  5
122
  330
162
  100
AcDbSymbolTableRecord
  100
AcDbBlockTableRecord
  2
D305RECTANGLE6_80719X0_0254
  340
0
  0
BLOCK_RECORD
  5
123
  330
162
  100
AcDbSymbolTableRecord
  100
AcDbBlockTableRecord
  2
D306RECTANGLE6_83259X0_0254
  340
0
  0
BLOCK_RECORD
  5
124
  330
162
  100
AcDbSymbolTableRecord
  100
AcDbBlockTableRecord
  2
D307RECTANGLE3_35279X0_0254
  340
0
  0
BLOCK_RECORD
  5
125
  330
162
  100
AcDbSymbolTableRecord
  100
AcDbBlockTableRecord
  2
D308RECTANGLE3_20039X0_0254
  340
0
  0
BLOCK_RECORD
  5
126
  330
162
  100
AcDbSymbolTableRecord
  100
AcDbBlockTableRecord
  2
D309RECTANGLE3_30199X0_0254
  340
0
  0
BLOCK_RECORD
  5
127
  330
162
  100
AcDbSymbolTableRecord
  100
AcDbBlockTableRecord
  2
D310RECTANGLE3_17499X0_0254
  340
0
  0
BLOCK_RECORD
  5
128
  330
162
  100
AcDbSymbolTableRecord
  100
AcDbBlockTableRecord
  2
D311RECTANGLE3_14959X0_0254
  340
0
  0
BLOCK_RECORD
  5
129
  330
162
  100
AcDbSymbolTableRecord
  100
AcDbBlockTableRecord
  2
D312RECTANGLE3_12419X0_0254
  340
0
  0
BLOCK_RECORD
  5
12A
  330
162
  100
AcDbSymbolTableRecord
  100
AcDbBlockTableRecord
  2
D313RECTANGLE3_25119X0_0254
  340
0
  0
BLOCK_RECORD
  5
12B
  330
162
  100
AcDbSymbolTableRecord
  100
AcDbBlockTableRecord
  2
D314RECTANGLE3_09879X0_0254
  340
0
  0
BLOCK_RECORD
  5
12C
  330
162
  100
AcDbSymbolTableRecord
  100
AcDbBlockTableRecord
  2
D315RECTANGLE3_07339X0_0254
  340
0
  0
BLOCK_RECORD
  5
12D
  330
162
  100
AcDbSymbolTableRecord
  100
AcDbBlockTableRecord
  2
D316RECTANGLE3_04799X0_0254
  340
0
  0
BLOCK_RECORD
  5
12E
  330
162
  100
AcDbSymbolTableRecord
  100
AcDbBlockTableRecord
  2
D317RECTANGLE3_02259X0_0254
  340
0
  0
BLOCK_RECORD
  5
12F
  330
162
  100
AcDbSymbolTableRecord
  100
AcDbBlockTableRecord
  2
D318RECTANGLE2_99719X0_0254
  340
0
  0
BLOCK_RECORD
  5
130
  330
162
  100
AcDbSymbolTableRecord
  100
AcDbBlockTableRecord
  2
D319RECTANGLE2_94639X0_0254
  340
0
  0
BLOCK_RECORD
  5
131
  330
162
  100
AcDbSymbolTableRecord
  100
AcDbBlockTableRecord
  2
D320RECTANGLE2_92099X0_0254
  340
0
  0
BLOCK_RECORD
  5
132
  330
162
  100
AcDbSymbolTableRecord
  100
AcDbBlockTableRecord
  2
D321RECTANGLE2_87019X0_0254
  340
0
  0
BLOCK_RECORD
  5
133
  330
162
  100
AcDbSymbolTableRecord
  100
AcDbBlockTableRecord
  2
D322RECTANGLE2_97179X0_0254
  340
0
  0
BLOCK_RECORD
  5
134
  330
162
  100
AcDbSymbolTableRecord
  100
AcDbBlockTableRecord
  2
D323RECTANGLE2_81939X0_0254
  340
0
  0
BLOCK_RECORD
  5
135
  330
162
  100
AcDbSymbolTableRecord
  100
AcDbBlockTableRecord
  2
D324RECTANGLE2_7178X0_0254
  340
0
  0
BLOCK_RECORD
  5
136
  330
162
  100
AcDbSymbolTableRecord
  100
AcDbBlockTableRecord
  2
D325RECTANGLE7_06119X0_0254
  340
0
  0
BLOCK_RECORD
  5
137
  330
162
  100
AcDbSymbolTableRecord
  100
AcDbBlockTableRecord
  2
D326RECTANGLE2_1844X0_0254
  340
0
  0
BLOCK_RECORD
  5
138
  330
162
  100
AcDbSymbolTableRecord
  100
AcDbBlockTableRecord
  2
D327RECTANGLE1_9812X0_0254
  340
0
  0
BLOCK_RECORD
  5
139
  330
162
  100
AcDbSymbolTableRecord
  100
AcDbBlockTableRecord
  2
D328RECTANGLE1_8034X0_0254
  340
0
  0
BLOCK_RECORD
  5
13A
  330
162
  100
AcDbSymbolTableRecord
  100
AcDbBlockTableRecord
  2
D329RECTANGLE1_4478X0_0254
  340
0
  0
BLOCK_RECORD
  5
13B
  330
162
  100
AcDbSymbolTableRecord
  100
AcDbBlockTableRecord
  2
D330SQUARE1_7032X1_7032
  340
0
  0
BLOCK_RECORD
  5
13C
  330
162
  100
AcDbSymbolTableRecord
  100
AcDbBlockTableRecord
  2
D331ROUND1_4032X1_4032
  340
0
  0
BLOCK_RECORD
  5
13D
  330
162
  100
AcDbSymbolTableRecord
  100
AcDbBlockTableRecord
  2
D332ROUND1_7272X1_7272
  340
0
  0
BLOCK_RECORD
  5
13E
  330
162
  100
AcDbSymbolTableRecord
  100
AcDbBlockTableRecord
  2
D333SQUARE1_7272X1_7272
  340
0
  0
BLOCK_RECORD
  5
13F
  330
162
  100
AcDbSymbolTableRecord
  100
AcDbBlockTableRecord
  2
D334SQUARE1_4032X1_4032
  340
0
  0
BLOCK_RECORD
  5
140
  330
162
  100
AcDbSymbolTableRecord
  100
AcDbBlockTableRecord
  2
D335ROUND1_7032X1_7032
  340
0
  0
BLOCK_RECORD
  5
141
  330
162
  100
AcDbSymbolTableRecord
  100
AcDbBlockTableRecord
  2
D336D3361_7018X1_7018
  340
0
  0
BLOCK_RECORD
  5
142
  330
162
  100
AcDbSymbolTableRecord
  100
AcDbBlockTableRecord
  2
D337SQUARE1_7032X1_7032
  340
0
  0
BLOCK_RECORD
  5
143
  330
162
  100
AcDbSymbolTableRecord
  100
AcDbBlockTableRecord
  2
D338ROUND1_7032X1_7032
  340
0
  0
BLOCK_RECORD
  5
144
  330
162
  100
AcDbSymbolTableRecord
  100
AcDbBlockTableRecord
  2
D339D3391_60528X1_60528
  340
0
  0
BLOCK_RECORD
  5
145
  330
162
  100
AcDbSymbolTableRecord
  100
AcDbBlockTableRecord
  2
D340ROUND1_6032X1_6032
  340
0
  0
BLOCK_RECORD
  5
146
  330
162
  100
AcDbSymbolTableRecord
  100
AcDbBlockTableRecord
  2
D341ROUND3_70319X3_70319
  340
0
  0
BLOCK_RECORD
  5
147
  330
162
  100
AcDbSymbolTableRecord
  100
AcDbBlockTableRecord
  2
D342ROUND2_7032X2_7032
  340
0
  0
BLOCK_RECORD
  5
148
  330
162
  100
AcDbSymbolTableRecord
  100
AcDbBlockTableRecord
  2
D343SQUARE2_7032X2_7032
  340
0
  0
BLOCK_RECORD
  5
149
  330
162
  100
AcDbSymbolTableRecord
  100
AcDbBlockTableRecord
  2
D344SQUARE1_4032X1_4032
  340
0
  0
BLOCK_RECORD
  5
14A
  330
162
  100
AcDbSymbolTableRecord
  100
AcDbBlockTableRecord
  2
D345SQUARE1_7032X1_7032
  340
0
  0
BLOCK_RECORD
  5
14B
  330
162
  100
AcDbSymbolTableRecord
  100
AcDbBlockTableRecord
  2
D346SQUARE1_7272X1_7272
  340
0
  0
BLOCK_RECORD
  5
14C
  330
162
  100
AcDbSymbolTableRecord
  100
AcDbBlockTableRecord
  2
D347ROUND3_37819X3_37819
  340
0
  0
BLOCK_RECORD
  5
14D
  330
162
  100
AcDbSymbolTableRecord
  100
AcDbBlockTableRecord
  2
D348ROUND1_4732X1_4732
  340
0
  0
BLOCK_RECORD
  5
14E
  330
162
  100
AcDbSymbolTableRecord
  100
AcDbBlockTableRecord
  2
D99RECTANGLE1_93X1_204
  340
0
  0
ENDTAB
  0
ENDSEC
  0
SECTION
  2
BLOCKS
  0
BLOCK
  5
167
  330
163
  100
AcDbEntity
  100
AcDbBlockBegin
  8
0
  2
*Model_Space
  70
0
  10
0
  20
0
  3
*Model_Space
  1

  0
ENDBLK
  5
168
  330
163
  100
AcDbEntity
  100
AcDbBlockEnd
  8
0
  0
BLOCK
  5
169
  330
164
  100
AcDbEntity
  100
AcDbBlockBegin
  8
0
  2
*Paper_Space
  70
0
  10
0
  20
0
  3
*Paper_Space
  1

  0
ENDBLK
  5
16A
  330
164
  100
AcDbEntity
  100
AcDbBlockEnd
  8
0
  0
BLOCK
  5
16B
  330
163
  100
AcDbEntity
  100
AcDbBlockBegin
  8
0
  2
D12SQUARE1_5X1_5
 70
     0
 10
0.0
 20
0.0
 30
0.0
  0
SOLID
  5
16C
  330
1
  100
AcDbEntity
  100
AcDbTrace
  8
0
 10
-0.75
 20
-0.75
 30
0.0
 11
0.75
 21
-0.75
 31
0.0
 12
-0.75
 22
0.75
 32
0.0
 13
0.75
 23
0.75
 33
0.0
  0
ENDBLK
  5
16D
  330
1
  100
AcDbEntity
  100
AcDbBlockEnd
  0
BLOCK
  5
16E
  330
163
  100
AcDbEntity
  100
AcDbBlockBegin
  8
0
  2
D13ROUND1_2X1_2
 70
     0
 10
0.0
 20
0.0
 30
0.0
  0
CIRCLE
  5
16F
  330
2
  100
AcDbEntity
  100
AcDbCircle
  8
0
 10
0.0
 20
0.0
 30
0.0
 40
0.6
  0
ENDBLK
  5
170
  330
2
  100
AcDbEntity
  100
AcDbBlockEnd
  0
BLOCK
  5
171
  330
163
  100
AcDbEntity
  100
AcDbBlockBegin
  8
0
  2
D14ROUND1_524X1_524
 70
     0
 10
0.0
 20
0.0
 30
0.0
  0
CIRCLE
  5
172
  330
3
  100
AcDbEntity
  100
AcDbCircle
  8
0
 10
0.0
 20
0.0
 30
0.0
 40
0.762
  0
ENDBLK
  5
173
  330
3
  100
AcDbEntity
  100
AcDbBlockEnd
  0
BLOCK
  5
174
  330
163
  100
AcDbEntity
  100
AcDbBlockBegin
  8
0
  2
D15SQUARE1_524X1_524
 70
     0
 10
0.0
 20
0.0
 30
0.0
  0
SOLID
  5
175
  330
4
  100
AcDbEntity
  100
AcDbTrace
  8
0
 10
-0.762
 20
-0.762
 30
0.0
 11
0.762
 21
-0.762
 31
0.0
 12
-0.762
 22
0.762
 32
0.0
 13
0.762
 23
0.762
 33
0.0
  0
ENDBLK
  5
176
  330
4
  100
AcDbEntity
  100
AcDbBlockEnd
  0
BLOCK
  5
177
  330
163
  100
AcDbEntity
  100
AcDbBlockBegin
  8
0
  2
D16SQUARE1_2X1_2
 70
     0
 10
0.0
 20
0.0
 30
0.0
  0
SOLID
  5
178
  330
5
  100
AcDbEntity
  100
AcDbTrace
  8
0
 10
-0.6
 20
-0.6
 30
0.0
 11
0.6
 21
-0.6
 31
0.0
 12
-0.6
 22
0.6
 32
0.0
 13
0.6
 23
0.6
 33
0.0
  0
ENDBLK
  5
179
  330
5
  100
AcDbEntity
  100
AcDbBlockEnd
  0
BLOCK
  5
17A
  330
163
  100
AcDbEntity
  100
AcDbBlockBegin
  8
0
  2
D17ROUND1_5X1_5
 70
     0
 10
0.0
 20
0.0
 30
0.0
  0
CIRCLE
  5
17B
  330
6
  100
AcDbEntity
  100
AcDbCircle
  8
0
 10
0.0
 20
0.0
 30
0.0
 40
0.75
  0
ENDBLK
  5
17C
  330
6
  100
AcDbEntity
  100
AcDbBlockEnd
  0
BLOCK
  5
17D
  330
163
  100
AcDbEntity
  100
AcDbBlockBegin
  8
0
  2
D18D181_4986X1_4986
 70
     0
 10
0.0
 20
0.0
 30
0.0
  0
POLYLINE
  5
17E
  330
7
  100
AcDbEntity
  100
AcDb2dPolyline
  8
0
 66
     1
 10
0.0
 20
0.0
 30
0.0
 70
     1
  0
VERTEX
  5
17F
  330
7
  100
AcDbEntity
  100
AcDbVertex
  100
AcDb2dVertex
  8
0
 10
-0.7493
 20
-0.30988
 30
0.0
  0
VERTEX
  5
180
  330
7
  100
AcDbEntity
  100
AcDbVertex
  100
AcDb2dVertex
  8
0
 10
-0.30988
 20
-0.7493
 30
0.0
  0
VERTEX
  5
181
  330
7
  100
AcDbEntity
  100
AcDbVertex
  100
AcDb2dVertex
  8
0
 10
0.30988
 20
-0.7493
 30
0.0
  0
VERTEX
  5
182
  330
7
  100
AcDbEntity
  100
AcDbVertex
  100
AcDb2dVertex
  8
0
 10
0.7493
 20
-0.30988
 30
0.0
  0
VERTEX
  5
183
  330
7
  100
AcDbEntity
  100
AcDbVertex
  100
AcDb2dVertex
  8
0
 10
0.7493
 20
0.30988
 30
0.0
  0
VERTEX
  5
184
  330
7
  100
AcDbEntity
  100
AcDbVertex
  100
AcDb2dVertex
  8
0
 10
0.30988
 20
0.7493
 30
0.0
  0
VERTEX
  5
185
  330
7
  100
AcDbEntity
  100
AcDbVertex
  100
AcDb2dVertex
  8
0
 10
-0.30988
 20
0.7493
 30
0.0
  0
VERTEX
  5
186
  330
7
  100
AcDbEntity
  100
AcDbVertex
  100
AcDb2dVertex
  8
0
 10
-0.7493
 20
0.30988
 30
0.0
  0
SEQEND
  5
187
  330
7
  100
AcDbEntity
  8
0
  0
ENDBLK
  5
188
  330
7
  100
AcDbEntity
  100
AcDbBlockEnd
  0
BLOCK
  5
189
  330
163
  100
AcDbEntity
  100
AcDbBlockBegin
  8
0
  2
D19SQUARE1_5X1_5
 70
     0
 10
0.0
 20
0.0
 30
0.0
  0
SOLID
  5
18A
  330
8
  100
AcDbEntity
  100
AcDbTrace
  8
0
 10
-0.75
 20
-0.75
 30
0.0
 11
0.75
 21
-0.75
 31
0.0
 12
-0.75
 22
0.75
 32
0.0
 13
0.75
 23
0.75
 33
0.0
  0
ENDBLK
  5
18B
  330
8
  100
AcDbEntity
  100
AcDbBlockEnd
  0
BLOCK
  5
18C
  330
163
  100
AcDbEntity
  100
AcDbBlockBegin
  8
0
  2
D20ROUND1_5X1_5
 70
     0
 10
0.0
 20
0.0
 30
0.0
  0
CIRCLE
  5
18D
  330
9
  100
AcDbEntity
  100
AcDbCircle
  8
0
 10
0.0
 20
0.0
 30
0.0
 40
0.75
  0
ENDBLK
  5
18E
  330
9
  100
AcDbEntity
  100
AcDbBlockEnd
  0
BLOCK
  5
18F
  330
163
  100
AcDbEntity
  100
AcDbBlockBegin
  8
0
  2
D21D211_40208X1_40208
 70
     0
 10
0.0
 20
0.0
 30
0.0
  0
POLYLINE
  5
190
  330
A
  100
AcDbEntity
  100
AcDb2dPolyline
  8
0
 66
     1
 10
0.0
 20
0.0
 30
0.0
 70
     1
  0
VERTEX
  5
191
  330
A
  100
AcDbEntity
  100
AcDbVertex
  100
AcDb2dVertex
  8
0
 10
-0.2921
 20
0.70104
 30
0.0
  0
VERTEX
  5
192
  330
A
  100
AcDbEntity
  100
AcDbVertex
  100
AcDb2dVertex
  8
0
 10
-0.70104
 20
0.2921
 30
0.0
  0
VERTEX
  5
193
  330
A
  100
AcDbEntity
  100
AcDbVertex
  100
AcDb2dVertex
  8
0
 10
-0.70104
 20
-0.2921
 30
0.0
  0
VERTEX
  5
194
  330
A
  100
AcDbEntity
  100
AcDbVertex
  100
AcDb2dVertex
  8
0
 10
-0.2921
 20
-0.70104
 30
0.0
  0
VERTEX
  5
195
  330
A
  100
AcDbEntity
  100
AcDbVertex
  100
AcDb2dVertex
  8
0
 10
0.2921
 20
-0.70104
 30
0.0
  0
VERTEX
  5
196
  330
A
  100
AcDbEntity
  100
AcDbVertex
  100
AcDb2dVertex
  8
0
 10
0.70104
 20
-0.2921
 30
0.0
  0
VERTEX
  5
197
  330
A
  100
AcDbEntity
  100
AcDbVertex
  100
AcDb2dVertex
  8
0
 10
0.70104
 20
0.2921
 30
0.0
  0
VERTEX
  5
198
  330
A
  100
AcDbEntity
  100
AcDbVertex
  100
AcDb2dVertex
  8
0
 10
0.2921
 20
0.70104
 30
0.0
  0
SEQEND
  5
199
  330
A
  100
AcDbEntity
  8
0
  0
ENDBLK
  5
19A
  330
A
  100
AcDbEntity
  100
AcDbBlockEnd
  0
BLOCK
  5
19B
  330
163
  100
AcDbEntity
  100
AcDbBlockBegin
  8
0
  2
D22ROUND1_4X1_4
 70
     0
 10
0.0
 20
0.0
 30
0.0
  0
CIRCLE
  5
19C
  330
B
  100
AcDbEntity
  100
AcDbCircle
  8
0
 10
0.0
 20
0.0
 30
0.0
 40
0.7
  0
ENDBLK
  5
19D
  330
B
  100
AcDbEntity
  100
AcDbBlockEnd
  0
BLOCK
  5
19E
  330
163
  100
AcDbEntity
  100
AcDbBlockBegin
  8
0
  2
D23ROUND3_49999X3_49999
 70
     0
 10
0.0
 20
0.0
 30
0.0
  0
CIRCLE
  5
19F
  330
C
  100
AcDbEntity
  100
AcDbCircle
  8
0
 10
0.0
 20
0.0
 30
0.0
 40
1.749995
  0
ENDBLK
  5
1A0
  330
C
  100
AcDbEntity
  100
AcDbBlockEnd
  0
BLOCK
  5
1A1
  330
163
  100
AcDbEntity
  100
AcDbBlockBegin
  8
0
  2
D24ROUND2_5X2_5
 70
     0
 10
0.0
 20
0.0
 30
0.0
  0
CIRCLE
  5
1A2
  330
D
  100
AcDbEntity
  100
AcDbCircle
  8
0
 10
0.0
 20
0.0
 30
0.0
 40
1.25
  0
ENDBLK
  5
1A3
  330
D
  100
AcDbEntity
  100
AcDbBlockEnd
  0
BLOCK
  5
1A4
  330
163
  100
AcDbEntity
  100
AcDbBlockBegin
  8
0
  2
D25SQUARE2_5X2_5
 70
     0
 10
0.0
 20
0.0
 30
0.0
  0
SOLID
  5
1A5
  330
E
  100
AcDbEntity
  100
AcDbTrace
  8
0
 10
-1.25
 20
-1.25
 30
0.0
 11
1.25
 21
-1.25
 31
0.0
 12
-1.25
 22
1.25
 32
0.0
 13
1.25
 23
1.25
 33
0.0
  0
ENDBLK
  5
1A6
  330
E
  100
AcDbEntity
  100
AcDbBlockEnd
  0
BLOCK
  5
1A7
  330
163
  100
AcDbEntity
  100
AcDbBlockBegin
  8
0
  2
D26SQUARE1_2X1_2
 70
     0
 10
0.0
 20
0.0
 30
0.0
  0
SOLID
  5
1A8
  330
F
  100
AcDbEntity
  100
AcDbTrace
  8
0
 10
-0.6
 20
-0.6
 30
0.0
 11
0.6
 21
-0.6
 31
0.0
 12
-0.6
 22
0.6
 32
0.0
 13
0.6
 23
0.6
 33
0.0
  0
ENDBLK
  5
1A9
  330
F
  100
AcDbEntity
  100
AcDbBlockEnd
  0
BLOCK
  5
1AA
  330
163
  100
AcDbEntity
  100
AcDbBlockBegin
  8
0
  2
D27SQUARE1_5X1_5
 70
     0
 10
0.0
 20
0.0
 30
0.0
  0
SOLID
  5
1AB
  330
10
  100
AcDbEntity
  100
AcDbTrace
  8
0
 10
-0.75
 20
-0.75
 30
0.0
 11
0.75
 21
-0.75
 31
0.0
 12
-0.75
 22
0.75
 32
0.0
 13
0.75
 23
0.75
 33
0.0
  0
ENDBLK
  5
1AC
  330
10
  100
AcDbEntity
  100
AcDbBlockEnd
  0
BLOCK
  5
1AD
  330
163
  100
AcDbEntity
  100
AcDbBlockBegin
  8
0
  2
D28SQUARE1_524X1_524
 70
     0
 10
0.0
 20
0.0
 30
0.0
  0
SOLID
  5
1AE
  330
11
  100
AcDbEntity
  100
AcDbTrace
  8
0
 10
-0.762
 20
-0.762
 30
0.0
 11
0.762
 21
-0.762
 31
0.0
 12
-0.762
 22
0.762
 32
0.0
 13
0.762
 23
0.762
 33
0.0
  0
ENDBLK
  5
1AF
  330
11
  100
AcDbEntity
  100
AcDbBlockEnd
  0
BLOCK
  5
1B0
  330
163
  100
AcDbEntity
  100
AcDbBlockBegin
  8
0
  2
D29ROUND3_17499X3_17499
 70
     0
 10
0.0
 20
0.0
 30
0.0
  0
CIRCLE
  5
1B1
  330
12
  100
AcDbEntity
  100
AcDbCircle
  8
0
 10
0.0
 20
0.0
 30
0.0
 40
1.587495
  0
ENDBLK
  5
1B2
  330
12
  100
AcDbEntity
  100
AcDbBlockEnd
  0
BLOCK
  5
1B3
  330
163
  100
AcDbEntity
  100
AcDbBlockBegin
  8
0
  2
D30ROUND1_27X1_27
 70
     0
 10
0.0
 20
0.0
 30
0.0
  0
CIRCLE
  5
1B4
  330
13
  100
AcDbEntity
  100
AcDbCircle
  8
0
 10
0.0
 20
0.0
 30
0.0
 40
0.635
  0
ENDBLK
  5
1B5
  330
13
  100
AcDbEntity
  100
AcDbBlockEnd
  0
BLOCK
  5
1B6
  330
163
  100
AcDbEntity
  100
AcDbBlockBegin
  8
0
  2
D34RECTANGLE0_3048X0_0254
 70
     0
 10
0.0
 20
0.0
 30
0.0
  0
SOLID
  5
1B7
  330
14
  100
AcDbEntity
  100
AcDbTrace
  8
0
 10
-0.1524
 20
-0.0127
 30
0.0
 11
0.1524
 21
-0.0127
 31
0.0
 12
-0.1524
 22
0.0127
 32
0.0
 13
0.1524
 23
0.0127
 33
0.0
  0
ENDBLK
  5
1B8
  330
14
  100
AcDbEntity
  100
AcDbBlockEnd
  0
BLOCK
  5
1B9
  330
163
  100
AcDbEntity
  100
AcDbBlockBegin
  8
0
  2
D35RECTANGLE0_4318X0_0254
 70
     0
 10
0.0
 20
0.0
 30
0.0
  0
SOLID
  5
1BA
  330
15
  100
AcDbEntity
  100
AcDbTrace
  8
0
 10
-0.2159
 20
-0.0127
 30
0.0
 11
0.2159
 21
-0.0127
 31
0.0
 12
-0.2159
 22
0.0127
 32
0.0
 13
0.2159
 23
0.0127
 33
0.0
  0
ENDBLK
  5
1BB
  330
15
  100
AcDbEntity
  100
AcDbBlockEnd
  0
BLOCK
  5
1BC
  330
163
  100
AcDbEntity
  100
AcDbBlockBegin
  8
0
  2
D36RECTANGLE0_635X0_0254
 70
     0
 10
0.0
 20
0.0
 30
0.0
  0
SOLID
  5
1BD
  330
16
  100
AcDbEntity
  100
AcDbTrace
  8
0
 10
-0.3175
 20
-0.0127
 30
0.0
 11
0.3175
 21
-0.0127
 31
0.0
 12
-0.3175
 22
0.0127
 32
0.0
 13
0.3175
 23
0.0127
 33
0.0
  0
ENDBLK
  5
1BE
  330
16
  100
AcDbEntity
  100
AcDbBlockEnd
  0
BLOCK
  5
1BF
  330
163
  100
AcDbEntity
  100
AcDbBlockBegin
  8
0
  2
D37RECTANGLE0_8382X0_0254
 70
     0
 10
0.0
 20
0.0
 30
0.0
  0
SOLID
  5
1C0
  330
17
  100
AcDbEntity
  100
AcDbTrace
  8
0
 10
-0.4191
 20
-0.0127
 30
0.0
 11
0.4191
 21
-0.0127
 31
0.0
 12
-0.4191
 22
0.0127
 32
0.0
 13
0.4191
 23
0.0127
 33
0.0
  0
ENDBLK
  5
1C1
  330
17
  100
AcDbEntity
  100
AcDbBlockEnd
  0
BLOCK
  5
1C2
  330
163
  100
AcDbEntity
  100
AcDbBlockBegin
  8
0
  2
D38RECTANGLE1_0668X0_0254
 70
     0
 10
0.0
 20
0.0
 30
0.0
  0
SOLID
  5
1C3
  330
18
  100
AcDbEntity
  100
AcDbTrace
  8
0
 10
-0.5334
 20
-0.0127
 30
0.0
 11
0.5334
 21
-0.0127
 31
0.0
 12
-0.5334
 22
0.0127
 32
0.0
 13
0.5334
 23
0.0127
 33
0.0
  0
ENDBLK
  5
1C4
  330
18
  100
AcDbEntity
  100
AcDbBlockEnd
  0
BLOCK
  5
1C5
  330
163
  100
AcDbEntity
  100
AcDbBlockBegin
  8
0
  2
D39RECTANGLE1_1684X0_0254
 70
     0
 10
0.0
 20
0.0
 30
0.0
  0
SOLID
  5
1C6
  330
19
  100
AcDbEntity
  100
AcDbTrace
  8
0
 10
-0.5842
 20
-0.0127
 30
0.0
 11
0.5842
 21
-0.0127
 31
0.0
 12
-0.5842
 22
0.0127
 32
0.0
 13
0.5842
 23
0.0127
 33
0.0
  0
ENDBLK
  5
1C7
  330
19
  100
AcDbEntity
  100
AcDbBlockEnd
  0
BLOCK
  5
1C8
  330
163
  100
AcDbEntity
  100
AcDbBlockBegin
  8
0
  2
D40RECTANGLE1_3716X0_0254
 70
     0
 10
0.0
 20
0.0
 30
0.0
  0
SOLID
  5
1C9
  330
1A
  100
AcDbEntity
  100
AcDbTrace
  8
0
 10
-0.6858
 20
-0.0127
 30
0.0
 11
0.6858
 21
-0.0127
 31
0.0
 12
-0.6858
 22
0.0127
 32
0.0
 13
0.6858
 23
0.0127
 33
0.0
  0
ENDBLK
  5
1CA
  330
1A
  100
AcDbEntity
  100
AcDbBlockEnd
  0
BLOCK
  5
1CB
  330
163
  100
AcDbEntity
  100
AcDbBlockBegin
  8
0
  2
D41RECTANGLE1_5748X0_0254
 70
     0
 10
0.0
 20
0.0
 30
0.0
  0
SOLID
  5
1CC
  330
1B
  100
AcDbEntity
  100
AcDbTrace
  8
0
 10
-0.7874
 20
-0.0127
 30
0.0
 11
0.7874
 21
-0.0127
 31
0.0
 12
-0.7874
 22
0.0127
 32
0.0
 13
0.7874
 23
0.0127
 33
0.0
  0
ENDBLK
  5
1CD
  330
1B
  100
AcDbEntity
  100
AcDbBlockEnd
  0
BLOCK
  5
1CE
  330
163
  100
AcDbEntity
  100
AcDbBlockBegin
  8
0
  2
D42RECTANGLE1_778X0_0254
 70
     0
 10
0.0
 20
0.0
 30
0.0
  0
SOLID
  5
1CF
  330
1C
  100
AcDbEntity
  100
AcDbTrace
  8
0
 10
-0.889
 20
-0.0127
 30
0.0
 11
0.889
 21
-0.0127
 31
0.0
 12
-0.889
 22
0.0127
 32
0.0
 13
0.889
 23
0.0127
 33
0.0
  0
ENDBLK
  5
1D0
  330
1C
  100
AcDbEntity
  100
AcDbBlockEnd
  0
BLOCK
  5
1D1
  330
163
  100
AcDbEntity
  100
AcDbBlockBegin
  8
0
  2
D43RECTANGLE1_9304X0_0254
 70
     0
 10
0.0
 20
0.0
 30
0.0
  0
SOLID
  5
1D2
  330
1D
  100
AcDbEntity
  100
AcDbTrace
  8
0
 10
-0.9652
 20
-0.0127
 30
0.0
 11
0.9652
 21
-0.0127
 31
0.0
 12
-0.9652
 22
0.0127
 32
0.0
 13
0.9652
 23
0.0127
 33
0.0
  0
ENDBLK
  5
1D3
  330
1D
  100
AcDbEntity
  100
AcDbBlockEnd
  0
BLOCK
  5
1D4
  330
163
  100
AcDbEntity
  100
AcDbBlockBegin
  8
0
  2
D44RECTANGLE2_159X0_0254
 70
     0
 10
0.0
 20
0.0
 30
0.0
  0
SOLID
  5
1D5
  330
1E
  100
AcDbEntity
  100
AcDbTrace
  8
0
 10
-1.0795
 20
-0.0127
 30
0.0
 11
1.0795
 21
-0.0127
 31
0.0
 12
-1.0795
 22
0.0127
 32
0.0
 13
1.0795
 23
0.0127
 33
0.0
  0
ENDBLK
  5
1D6
  330
1E
  100
AcDbEntity
  100
AcDbBlockEnd
  0
BLOCK
  5
1D7
  330
163
  100
AcDbEntity
  100
AcDbBlockBegin
  8
0
  2
D45RECTANGLE2_3368X0_0254
 70
     0
 10
0.0
 20
0.0
 30
0.0
  0
SOLID
  5
1D8
  330
1F
  100
AcDbEntity
  100
AcDbTrace
  8
0
 10
-1.1684
 20
-0.0127
 30
0.0
 11
1.1684
 21
-0.0127
 31
0.0
 12
-1.1684
 22
0.0127
 32
0.0
 13
1.1684
 23
0.0127
 33
0.0
  0
ENDBLK
  5
1D9
  330
1F
  100
AcDbEntity
  100
AcDbBlockEnd
  0
BLOCK
  5
1DA
  330
163
  100
AcDbEntity
  100
AcDbBlockBegin
  8
0
  2
D46RECTANGLE1_1176X0_0254
 70
     0
 10
0.0
 20
0.0
 30
0.0
  0
SOLID
  5
1DB
  330
20
  100
AcDbEntity
  100
AcDbTrace
  8
0
 10
-0.5588
 20
-0.0127
 30
0.0
 11
0.5588
 21
-0.0127
 31
0.0
 12
-0.5588
 22
0.0127
 32
0.0
 13
0.5588
 23
0.0127
 33
0.0
  0
ENDBLK
  5
1DC
  330
20
  100
AcDbEntity
  100
AcDbBlockEnd
  0
BLOCK
  5
1DD
  330
163
  100
AcDbEntity
  100
AcDbBlockBegin
  8
0
  2
D47RECTANGLE1_1938X0_0254
 70
     0
 10
0.0
 20
0.0
 30
0.0
  0
SOLID
  5
1DE
  330
21
  100
AcDbEntity
  100
AcDbTrace
  8
0
 10
-0.5969
 20
-0.0127
 30
0.0
 11
0.5969
 21
-0.0127
 31
0.0
 12
-0.5969
 22
0.0127
 32
0.0
 13
0.5969
 23
0.0127
 33
0.0
  0
ENDBLK
  5
1DF
  330
21
  100
AcDbEntity
  100
AcDbBlockEnd
  0
BLOCK
  5
1E0
  330
163
  100
AcDbEntity
  100
AcDbBlockBegin
  8
0
  2
D48RECTANGLE1_143X0_0254
 70
     0
 10
0.0
 20
0.0
 30
0.0
  0
SOLID
  5
1E1
  330
22
  100
AcDbEntity
  100
AcDbTrace
  8
0
 10
-0.5715
 20
-0.0127
 30
0.0
 11
0.5715
 21
-0.0127
 31
0.0
 12
-0.5715
 22
0.0127
 32
0.0
 13
0.5715
 23
0.0127
 33
0.0
  0
ENDBLK
  5
1E2
  330
22
  100
AcDbEntity
  100
AcDbBlockEnd
  0
BLOCK
  5
1E3
  330
163
  100
AcDbEntity
  100
AcDbBlockBegin
  8
0
  2
D49RECTANGLE1_2192X0_0254
 70
     0
 10
0.0
 20
0.0
 30
0.0
  0
SOLID
  5
1E4
  330
23
  100
AcDbEntity
  100
AcDbTrace
  8
0
 10
-0.6096
 20
-0.0127
 30
0.0
 11
0.6096
 21
-0.0127
 31
0.0
 12
-0.6096
 22
0.0127
 32
0.0
 13
0.6096
 23
0.0127
 33
0.0
  0
ENDBLK
  5
1E5
  330
23
  100
AcDbEntity
  100
AcDbBlockEnd
  0
BLOCK
  5
1E6
  330
163
  100
AcDbEntity
  100
AcDbBlockBegin
  8
0
  2
D50RECTANGLE1_0922X0_0254
 70
     0
 10
0.0
 20
0.0
 30
0.0
  0
SOLID
  5
1E7
  330
24
  100
AcDbEntity
  100
AcDbTrace
  8
0
 10
-0.5461
 20
-0.0127
 30
0.0
 11
0.5461
 21
-0.0127
 31
0.0
 12
-0.5461
 22
0.0127
 32
0.0
 13
0.5461
 23
0.0127
 33
0.0
  0
ENDBLK
  5
1E8
  330
24
  100
AcDbEntity
  100
AcDbBlockEnd
  0
BLOCK
  5
1E9
  330
163
  100
AcDbEntity
  100
AcDbBlockBegin
  8
0
  2
D51RECTANGLE0_9906X0_0254
 70
     0
 10
0.0
 20
0.0
 30
0.0
  0
SOLID
  5
1EA
  330
25
  100
AcDbEntity
  100
AcDbTrace
  8
0
 10
-0.4953
 20
-0.0127
 30
0.0
 11
0.4953
 21
-0.0127
 31
0.0
 12
-0.4953
 22
0.0127
 32
0.0
 13
0.4953
 23
0.0127
 33
0.0
  0
ENDBLK
  5
1EB
  330
25
  100
AcDbEntity
  100
AcDbBlockEnd
  0
BLOCK
  5
1EC
  330
163
  100
AcDbEntity
  100
AcDbBlockBegin
  8
0
  2
D52RECTANGLE1_0414X0_0254
 70
     0
 10
0.0
 20
0.0
 30
0.0
  0
SOLID
  5
1ED
  330
26
  100
AcDbEntity
  100
AcDbTrace
  8
0
 10
-0.5207
 20
-0.0127
 30
0.0
 11
0.5207
 21
-0.0127
 31
0.0
 12
-0.5207
 22
0.0127
 32
0.0
 13
0.5207
 23
0.0127
 33
0.0
  0
ENDBLK
  5
1EE
  330
26
  100
AcDbEntity
  100
AcDbBlockEnd
  0
BLOCK
  5
1EF
  330
163
  100
AcDbEntity
  100
AcDbBlockBegin
  8
0
  2
D53RECTANGLE0_9144X0_0254
 70
     0
 10
0.0
 20
0.0
 30
0.0
  0
SOLID
  5
1F0
  330
27
  100
AcDbEntity
  100
AcDbTrace
  8
0
 10
-0.4572
 20
-0.0127
 30
0.0
 11
0.4572
 21
-0.0127
 31
0.0
 12
-0.4572
 22
0.0127
 32
0.0
 13
0.4572
 23
0.0127
 33
0.0
  0
ENDBLK
  5
1F1
  330
27
  100
AcDbEntity
  100
AcDbBlockEnd
  0
BLOCK
  5
1F2
  330
163
  100
AcDbEntity
  100
AcDbBlockBegin
  8
0
  2
D54RECTANGLE0_7874X0_0254
 70
     0
 10
0.0
 20
0.0
 30
0.0
  0
SOLID
  5
1F3
  330
28
  100
AcDbEntity
  100
AcDbTrace
  8
0
 10
-0.3937
 20
-0.0127
 30
0.0
 11
0.3937
 21
-0.0127
 31
0.0
 12
-0.3937
 22
0.0127
 32
0.0
 13
0.3937
 23
0.0127
 33
0.0
  0
ENDBLK
  5
1F4
  330
28
  100
AcDbEntity
  100
AcDbBlockEnd
  0
BLOCK
  5
1F5
  330
163
  100
AcDbEntity
  100
AcDbBlockBegin
  8
0
  2
D55RECTANGLE0_8636X0_0254
 70
     0
 10
0.0
 20
0.0
 30
0.0
  0
SOLID
  5
1F6
  330
29
  100
AcDbEntity
  100
AcDbTrace
  8
0
 10
-0.4318
 20
-0.0127
 30
0.0
 11
0.4318
 21
-0.0127
 31
0.0
 12
-0.4318
 22
0.0127
 32
0.0
 13
0.4318
 23
0.0127
 33
0.0
  0
ENDBLK
  5
1F7
  330
29
  100
AcDbEntity
  100
AcDbBlockEnd
  0
BLOCK
  5
1F8
  330
163
  100
AcDbEntity
  100
AcDbBlockBegin
  8
0
  2
D56RECTANGLE0_7366X0_0254
 70
     0
 10
0.0
 20
0.0
 30
0.0
  0
SOLID
  5
1F9
  330
2A
  100
AcDbEntity
  100
AcDbTrace
  8
0
 10
-0.3683
 20
-0.0127
 30
0.0
 11
0.3683
 21
-0.0127
 31
0.0
 12
-0.3683
 22
0.0127
 32
0.0
 13
0.3683
 23
0.0127
 33
0.0
  0
ENDBLK
  5
1FA
  330
2A
  100
AcDbEntity
  100
AcDbBlockEnd
  0
BLOCK
  5
1FB
  330
163
  100
AcDbEntity
  100
AcDbBlockBegin
  8
0
  2
D57RECTANGLE0_6604X0_0254
 70
     0
 10
0.0
 20
0.0
 30
0.0
  0
SOLID
  5
1FC
  330
2B
  100
AcDbEntity
  100
AcDbTrace
  8
0
 10
-0.3302
 20
-0.0127
 30
0.0
 11
0.3302
 21
-0.0127
 31
0.0
 12
-0.3302
 22
0.0127
 32
0.0
 13
0.3302
 23
0.0127
 33
0.0
  0
ENDBLK
  5
1FD
  330
2B
  100
AcDbEntity
  100
AcDbBlockEnd
  0
BLOCK
  5
1FE
  330
163
  100
AcDbEntity
  100
AcDbBlockBegin
  8
0
  2
D58RECTANGLE0_6096X0_0254
 70
     0
 10
0.0
 20
0.0
 30
0.0
  0
SOLID
  5
1FF
  330
2C
  100
AcDbEntity
  100
AcDbTrace
  8
0
 10
-0.3048
 20
-0.0127
 30
0.0
 11
0.3048
 21
-0.0127
 31
0.0
 12
-0.3048
 22
0.0127
 32
0.0
 13
0.3048
 23
0.0127
 33
0.0
  0
ENDBLK
  5
200
  330
2C
  100
AcDbEntity
  100
AcDbBlockEnd
  0
BLOCK
  5
201
  330
163
  100
AcDbEntity
  100
AcDbBlockBegin
  8
0
  2
D59RECTANGLE0_762X0_0254
 70
     0
 10
0.0
 20
0.0
 30
0.0
  0
SOLID
  5
202
  330
2D
  100
AcDbEntity
  100
AcDbTrace
  8
0
 10
-0.381
 20
-0.0127
 30
0.0
 11
0.381
 21
-0.0127
 31
0.0
 12
-0.381
 22
0.0127
 32
0.0
 13
0.381
 23
0.0127
 33
0.0
  0
ENDBLK
  5
203
  330
2D
  100
AcDbEntity
  100
AcDbBlockEnd
  0
BLOCK
  5
204
  330
163
  100
AcDbEntity
  100
AcDbBlockBegin
  8
0
  2
D60RECTANGLE0_5588X0_0254
 70
     0
 10
0.0
 20
0.0
 30
0.0
  0
SOLID
  5
205
  330
2E
  100
AcDbEntity
  100
AcDbTrace
  8
0
 10
-0.2794
 20
-0.0127
 30
0.0
 11
0.2794
 21
-0.0127
 31
0.0
 12
-0.2794
 22
0.0127
 32
0.0
 13
0.2794
 23
0.0127
 33
0.0
  0
ENDBLK
  5
206
  330
2E
  100
AcDbEntity
  100
AcDbBlockEnd
  0
BLOCK
  5
207
  330
163
  100
AcDbEntity
  100
AcDbBlockBegin
  8
0
  2
D61RECTANGLE0_889X0_0254
 70
     0
 10
0.0
 20
0.0
 30
0.0
  0
SOLID
  5
208
  330
2F
  100
AcDbEntity
  100
AcDbTrace
  8
0
 10
-0.4445
 20
-0.0127
 30
0.0
 11
0.4445
 21
-0.0127
 31
0.0
 12
-0.4445
 22
0.0127
 32
0.0
 13
0.4445
 23
0.0127
 33
0.0
  0
ENDBLK
  5
209
  330
2F
  100
AcDbEntity
  100
AcDbBlockEnd
  0
BLOCK
  5
20A
  330
163
  100
AcDbEntity
  100
AcDbBlockBegin
  8
0
  2
D62RECTANGLE0_3556X0_0254
 70
     0
 10
0.0
 20
0.0
 30
0.0
  0
SOLID
  5
20B
  330
30
  100
AcDbEntity
  100
AcDbTrace
  8
0
 10
-0.1778
 20
-0.0127
 30
0.0
 11
0.1778
 21
-0.0127
 31
0.0
 12
-0.1778
 22
0.0127
 32
0.0
 13
0.1778
 23
0.0127
 33
0.0
  0
ENDBLK
  5
20C
  330
30
  100
AcDbEntity
  100
AcDbBlockEnd
  0
BLOCK
  5
20D
  330
163
  100
AcDbEntity
  100
AcDbBlockBegin
  8
0
  2
D63RECTANGLE0_9398X0_0254
 70
     0
 10
0.0
 20
0.0
 30
0.0
  0
SOLID
  5
20E
  330
31
  100
AcDbEntity
  100
AcDbTrace
  8
0
 10
-0.4699
 20
-0.0127
 30
0.0
 11
0.4699
 21
-0.0127
 31
0.0
 12
-0.4699
 22
0.0127
 32
0.0
 13
0.4699
 23
0.0127
 33
0.0
  0
ENDBLK
  5
20F
  330
31
  100
AcDbEntity
  100
AcDbBlockEnd
  0
BLOCK
  5
210
  330
163
  100
AcDbEntity
  100
AcDbBlockBegin
  8
0
  2
D64RECTANGLE0_2794X0_0254
 70
     0
 10
0.0
 20
0.0
 30
0.0
  0
SOLID
  5
211
  330
32
  100
AcDbEntity
  100
AcDbTrace
  8
0
 10
-0.1397
 20
-0.0127
 30
0.0
 11
0.1397
 21
-0.0127
 31
0.0
 12
-0.1397
 22
0.0127
 32
0.0
 13
0.1397
 23
0.0127
 33
0.0
  0
ENDBLK
  5
212
  330
32
  100
AcDbEntity
  100
AcDbBlockEnd
  0
BLOCK
  5
213
  330
163
  100
AcDbEntity
  100
AcDbBlockBegin
  8
0
  2
D65RECTANGLE0_9652X0_0254
 70
     0
 10
0.0
 20
0.0
 30
0.0
  0
SOLID
  5
214
  330
33
  100
AcDbEntity
  100
AcDbTrace
  8
0
 10
-0.4826
 20
-0.0127
 30
0.0
 11
0.4826
 21
-0.0127
 31
0.0
 12
-0.4826
 22
0.0127
 32
0.0
 13
0.4826
 23
0.0127
 33
0.0
  0
ENDBLK
  5
215
  330
33
  100
AcDbEntity
  100
AcDbBlockEnd
  0
BLOCK
  5
216
  330
163
  100
AcDbEntity
  100
AcDbBlockBegin
  8
0
  2
D66RECTANGLE0_0762X0_0254
 70
     0
 10
0.0
 20
0.0
 30
0.0
  0
SOLID
  5
217
  330
34
  100
AcDbEntity
  100
AcDbTrace
  8
0
 10
-0.0381
 20
-0.0127
 30
0.0
 11
0.0381
 21
-0.0127
 31
0.0
 12
-0.0381
 22
0.0127
 32
0.0
 13
0.0381
 23
0.0127
 33
0.0
  0
ENDBLK
  5
218
  330
34
  100
AcDbEntity
  100
AcDbBlockEnd
  0
BLOCK
  5
219
  330
163
  100
AcDbEntity
  100
AcDbBlockBegin
  8
0
  2
D67RECTANGLE0_2032X0_0254
 70
     0
 10
0.0
 20
0.0
 30
0.0
  0
SOLID
  5
21A
  330
35
  100
AcDbEntity
  100
AcDbTrace
  8
0
 10
-0.1016
 20
-0.0127
 30
0.0
 11
0.1016
 21
-0.0127
 31
0.0
 12
-0.1016
 22
0.0127
 32
0.0
 13
0.1016
 23
0.0127
 33
0.0
  0
ENDBLK
  5
21B
  330
35
  100
AcDbEntity
  100
AcDbBlockEnd
  0
BLOCK
  5
21C
  330
163
  100
AcDbEntity
  100
AcDbBlockBegin
  8
0
  2
D68RECTANGLE0_3302X0_0254
 70
     0
 10
0.0
 20
0.0
 30
0.0
  0
SOLID
  5
21D
  330
36
  100
AcDbEntity
  100
AcDbTrace
  8
0
 10
-0.1651
 20
-0.0127
 30
0.0
 11
0.1651
 21
-0.0127
 31
0.0
 12
-0.1651
 22
0.0127
 32
0.0
 13
0.1651
 23
0.0127
 33
0.0
  0
ENDBLK
  5
21E
  330
36
  100
AcDbEntity
  100
AcDbBlockEnd
  0
BLOCK
  5
21F
  330
163
  100
AcDbEntity
  100
AcDbBlockBegin
  8
0
  2
D69RECTANGLE0_4826X0_0254
 70
     0
 10
0.0
 20
0.0
 30
0.0
  0
SOLID
  5
220
  330
37
  100
AcDbEntity
  100
AcDbTrace
  8
0
 10
-0.2413
 20
-0.0127
 30
0.0
 11
0.2413
 21
-0.0127
 31
0.0
 12
-0.2413
 22
0.0127
 32
0.0
 13
0.2413
 23
0.0127
 33
0.0
  0
ENDBLK
  5
221
  330
37
  100
AcDbEntity
  100
AcDbBlockEnd
  0
BLOCK
  5
222
  330
163
  100
AcDbEntity
  100
AcDbBlockBegin
  8
0
  2
D70RECTANGLE0_381X0_0254
 70
     0
 10
0.0
 20
0.0
 30
0.0
  0
SOLID
  5
223
  330
38
  100
AcDbEntity
  100
AcDbTrace
  8
0
 10
-0.1905
 20
-0.0127
 30
0.0
 11
0.1905
 21
-0.0127
 31
0.0
 12
-0.1905
 22
0.0127
 32
0.0
 13
0.1905
 23
0.0127
 33
0.0
  0
ENDBLK
  5
224
  330
38
  100
AcDbEntity
  100
AcDbBlockEnd
  0
BLOCK
  5
225
  330
163
  100
AcDbEntity
  100
AcDbBlockBegin
  8
0
  2
D71RECTANGLE0_6858X0_0254
 70
     0
 10
0.0
 20
0.0
 30
0.0
  0
SOLID
  5
226
  330
39
  100
AcDbEntity
  100
AcDbTrace
  8
0
 10
-0.3429
 20
-0.0127
 30
0.0
 11
0.3429
 21
-0.0127
 31
0.0
 12
-0.3429
 22
0.0127
 32
0.0
 13
0.3429
 23
0.0127
 33
0.0
  0
ENDBLK
  5
227
  330
39
  100
AcDbEntity
  100
AcDbBlockEnd
  0
BLOCK
  5
228
  330
163
  100
AcDbEntity
  100
AcDbBlockBegin
  8
0
  2
D72RECTANGLE0_0508X0_0254
 70
     0
 10
0.0
 20
0.0
 30
0.0
  0
SOLID
  5
229
  330
3A
  100
AcDbEntity
  100
AcDbTrace
  8
0
 10
-0.0254
 20
-0.0127
 30
0.0
 11
0.0254
 21
-0.0127
 31
0.0
 12
-0.0254
 22
0.0127
 32
0.0
 13
0.0254
 23
0.0127
 33
0.0
  0
ENDBLK
  5
22A
  330
3A
  100
AcDbEntity
  100
AcDbBlockEnd
  0
BLOCK
  5
22B
  330
163
  100
AcDbEntity
  100
AcDbBlockBegin
  8
0
  2
D73RECTANGLE0_5334X0_0254
 70
     0
 10
0.0
 20
0.0
 30
0.0
  0
SOLID
  5
22C
  330
3B
  100
AcDbEntity
  100
AcDbTrace
  8
0
 10
-0.2667
 20
-0.0127
 30
0.0
 11
0.2667
 21
-0.0127
 31
0.0
 12
-0.2667
 22
0.0127
 32
0.0
 13
0.2667
 23
0.0127
 33
0.0
  0
ENDBLK
  5
22D
  330
3B
  100
AcDbEntity
  100
AcDbBlockEnd
  0
BLOCK
  5
22E
  330
163
  100
AcDbEntity
  100
AcDbBlockBegin
  8
0
  2
D74RECTANGLE0_1778X0_0254
 70
     0
 10
0.0
 20
0.0
 30
0.0
  0
SOLID
  5
22F
  330
3C
  100
AcDbEntity
  100
AcDbTrace
  8
0
 10
-0.0889
 20
-0.0127
 30
0.0
 11
0.0889
 21
-0.0127
 31
0.0
 12
-0.0889
 22
0.0127
 32
0.0
 13
0.0889
 23
0.0127
 33
0.0
  0
ENDBLK
  5
230
  330
3C
  100
AcDbEntity
  100
AcDbBlockEnd
  0
BLOCK
  5
231
  330
163
  100
AcDbEntity
  100
AcDbBlockBegin
  8
0
  2
D75RECTANGLE0_8128X0_0254
 70
     0
 10
0.0
 20
0.0
 30
0.0
  0
SOLID
  5
232
  330
3D
  100
AcDbEntity
  100
AcDbTrace
  8
0
 10
-0.4064
 20
-0.0127
 30
0.0
 11
0.4064
 21
-0.0127
 31
0.0
 12
-0.4064
 22
0.0127
 32
0.0
 13
0.4064
 23
0.0127
 33
0.0
  0
ENDBLK
  5
233
  330
3D
  100
AcDbEntity
  100
AcDbBlockEnd
  0
BLOCK
  5
234
  330
163
  100
AcDbEntity
  100
AcDbBlockBegin
  8
0
  2
D76RECTANGLE0_5842X0_0254
 70
     0
 10
0.0
 20
0.0
 30
0.0
  0
SOLID
  5
235
  330
3E
  100
AcDbEntity
  100
AcDbTrace
  8
0
 10
-0.2921
 20
-0.0127
 30
0.0
 11
0.2921
 21
-0.0127
 31
0.0
 12
-0.2921
 22
0.0127
 32
0.0
 13
0.2921
 23
0.0127
 33
0.0
  0
ENDBLK
  5
236
  330
3E
  100
AcDbEntity
  100
AcDbBlockEnd
  0
BLOCK
  5
237
  330
163
  100
AcDbEntity
  100
AcDbBlockBegin
  8
0
  2
D77RECTANGLE0_254X0_0254
 70
     0
 10
0.0
 20
0.0
 30
0.0
  0
SOLID
  5
238
  330
3F
  100
AcDbEntity
  100
AcDbTrace
  8
0
 10
-0.127
 20
-0.0127
 30
0.0
 11
0.127
 21
-0.0127
 31
0.0
 12
-0.127
 22
0.0127
 32
0.0
 13
0.127
 23
0.0127
 33
0.0
  0
ENDBLK
  5
239
  330
3F
  100
AcDbEntity
  100
AcDbBlockEnd
  0
BLOCK
  5
23A
  330
163
  100
AcDbEntity
  100
AcDbBlockBegin
  8
0
  2
D78RECTANGLE0_4572X0_0254
 70
     0
 10
0.0
 20
0.0
 30
0.0
  0
SOLID
  5
23B
  330
40
  100
AcDbEntity
  100
AcDbTrace
  8
0
 10
-0.2286
 20
-0.0127
 30
0.0
 11
0.2286
 21
-0.0127
 31
0.0
 12
-0.2286
 22
0.0127
 32
0.0
 13
0.2286
 23
0.0127
 33
0.0
  0
ENDBLK
  5
23C
  330
40
  100
AcDbEntity
  100
AcDbBlockEnd
  0
BLOCK
  5
23D
  330
163
  100
AcDbEntity
  100
AcDbBlockBegin
  8
0
  2
D79RECTANGLE1_016X0_0254
 70
     0
 10
0.0
 20
0.0
 30
0.0
  0
SOLID
  5
23E
  330
41
  100
AcDbEntity
  100
AcDbTrace
  8
0
 10
-0.508
 20
-0.0127
 30
0.0
 11
0.508
 21
-0.0127
 31
0.0
 12
-0.508
 22
0.0127
 32
0.0
 13
0.508
 23
0.0127
 33
0.0
  0
ENDBLK
  5
23F
  330
41
  100
AcDbEntity
  100
AcDbBlockEnd
  0
BLOCK
  5
240
  330
163
  100
AcDbEntity
  100
AcDbBlockBegin
  8
0
  2
D80RECTANGLE0_1524X0_0254
 70
     0
 10
0.0
 20
0.0
 30
0.0
  0
SOLID
  5
241
  330
42
  100
AcDbEntity
  100
AcDbTrace
  8
0
 10
-0.0762
 20
-0.0127
 30
0.0
 11
0.0762
 21
-0.0127
 31
0.0
 12
-0.0762
 22
0.0127
 32
0.0
 13
0.0762
 23
0.0127
 33
0.0
  0
ENDBLK
  5
242
  330
42
  100
AcDbEntity
  100
AcDbBlockEnd
  0
BLOCK
  5
243
  330
163
  100
AcDbEntity
  100
AcDbBlockBegin
  8
0
  2
D81RECTANGLE1_8796X0_0254
 70
     0
 10
0.0
 20
0.0
 30
0.0
  0
SOLID
  5
244
  330
43
  100
AcDbEntity
  100
AcDbTrace
  8
0
 10
-0.9398
 20
-0.0127
 30
0.0
 11
0.9398
 21
-0.0127
 31
0.0
 12
-0.9398
 22
0.0127
 32
0.0
 13
0.9398
 23
0.0127
 33
0.0
  0
ENDBLK
  5
245
  330
43
  100
AcDbEntity
  100
AcDbBlockEnd
  0
BLOCK
  5
246
  330
163
  100
AcDbEntity
  100
AcDbBlockBegin
  8
0
  2
D82RECTANGLE1_27X0_0254
 70
     0
 10
0.0
 20
0.0
 30
0.0
  0
SOLID
  5
247
  330
44
  100
AcDbEntity
  100
AcDbTrace
  8
0
 10
-0.635
 20
-0.0127
 30
0.0
 11
0.635
 21
-0.0127
 31
0.0
 12
-0.635
 22
0.0127
 32
0.0
 13
0.635
 23
0.0127
 33
0.0
  0
ENDBLK
  5
248
  330
44
  100
AcDbEntity
  100
AcDbBlockEnd
  0
BLOCK
  5
249
  330
163
  100
AcDbEntity
  100
AcDbBlockBegin
  8
0
  2
D83RECTANGLE0_4064X0_0254
 70
     0
 10
0.0
 20
0.0
 30
0.0
  0
SOLID
  5
24A
  330
45
  100
AcDbEntity
  100
AcDbTrace
  8
0
 10
-0.2032
 20
-0.0127
 30
0.0
 11
0.2032
 21
-0.0127
 31
0.0
 12
-0.2032
 22
0.0127
 32
0.0
 13
0.2032
 23
0.0127
 33
0.0
  0
ENDBLK
  5
24B
  330
45
  100
AcDbEntity
  100
AcDbBlockEnd
  0
BLOCK
  5
24C
  330
163
  100
AcDbEntity
  100
AcDbBlockBegin
  8
0
  2
D84RECTANGLE0_508X0_0254
 70
     0
 10
0.0
 20
0.0
 30
0.0
  0
SOLID
  5
24D
  330
46
  100
AcDbEntity
  100
AcDbTrace
  8
0
 10
-0.254
 20
-0.0127
 30
0.0
 11
0.254
 21
-0.0127
 31
0.0
 12
-0.254
 22
0.0127
 32
0.0
 13
0.254
 23
0.0127
 33
0.0
  0
ENDBLK
  5
24E
  330
46
  100
AcDbEntity
  100
AcDbBlockEnd
  0
BLOCK
  5
24F
  330
163
  100
AcDbEntity
  100
AcDbBlockBegin
  8
0
  2
D85RECTANGLE1_8288X0_0254
 70
     0
 10
0.0
 20
0.0
 30
0.0
  0
SOLID
  5
250
  330
47
  100
AcDbEntity
  100
AcDbTrace
  8
0
 10
-0.9144
 20
-0.0127
 30
0.0
 11
0.9144
 21
-0.0127
 31
0.0
 12
-0.9144
 22
0.0127
 32
0.0
 13
0.9144
 23
0.0127
 33
0.0
  0
ENDBLK
  5
251
  330
47
  100
AcDbEntity
  100
AcDbBlockEnd
  0
BLOCK
  5
252
  330
163
  100
AcDbEntity
  100
AcDbBlockBegin
  8
0
  2
D86RECTANGLE1_651X0_0254
 70
     0
 10
0.0
 20
0.0
 30
0.0
  0
SOLID
  5
253
  330
48
  100
AcDbEntity
  100
AcDbTrace
  8
0
 10
-0.825500
 20
-0.0127
 30
0.0
 11
0.825500
 21
-0.0127
 31
0.0
 12
-0.825500
 22
0.0127
 32
0.0
 13
0.825500
 23
0.0127
 33
0.0
  0
ENDBLK
  5
254
  330
48
  100
AcDbEntity
  100
AcDbBlockEnd
  0
BLOCK
  5
255
  330
163
  100
AcDbEntity
  100
AcDbBlockBegin
  8
0
  2
D87RECTANGLE1_524X0_0254
 70
     0
 10
0.0
 20
0.0
 30
0.0
  0
SOLID
  5
256
  330
49
  100
AcDbEntity
  100
AcDbTrace
  8
0
 10
-0.762
 20
-0.0127
 30
0.0
 11
0.762
 21
-0.0127
 31
0.0
 12
-0.762
 22
0.0127
 32
0.0
 13
0.762
 23
0.0127
 33
0.0
  0
ENDBLK
  5
257
  330
49
  100
AcDbEntity
  100
AcDbBlockEnd
  0
BLOCK
  5
258
  330
163
  100
AcDbEntity
  100
AcDbBlockBegin
  8
0
  2
D88RECTANGLE1_3462X0_0254
 70
     0
 10
0.0
 20
0.0
 30
0.0
  0
SOLID
  5
259
  330
4A
  100
AcDbEntity
  100
AcDbTrace
  8
0
 10
-0.6731
 20
-0.0127
 30
0.0
 11
0.6731
 21
-0.0127
 31
0.0
 12
-0.6731
 22
0.0127
 32
0.0
 13
0.6731
 23
0.0127
 33
0.0
  0
ENDBLK
  5
25A
  330
4A
  100
AcDbEntity
  100
AcDbBlockEnd
  0
BLOCK
  5
25B
  330
163
  100
AcDbEntity
  100
AcDbBlockBegin
  8
0
  2
D89RECTANGLE0_1016X0_0254
 70
     0
 10
0.0
 20
0.0
 30
0.0
  0
SOLID
  5
25C
  330
4B
  100
AcDbEntity
  100
AcDbTrace
  8
0
 10
-0.0508
 20
-0.0127
 30
0.0
 11
0.0508
 21
-0.0127
 31
0.0
 12
-0.0508
 22
0.0127
 32
0.0
 13
0.0508
 23
0.0127
 33
0.0
  0
ENDBLK
  5
25D
  330
4B
  100
AcDbEntity
  100
AcDbBlockEnd
  0
BLOCK
  5
25E
  330
163
  100
AcDbEntity
  100
AcDbBlockBegin
  8
0
  2
D90RECTANGLE0_7112X0_0254
 70
     0
 10
0.0
 20
0.0
 30
0.0
  0
SOLID
  5
25F
  330
4C
  100
AcDbEntity
  100
AcDbTrace
  8
0
 10
-0.3556
 20
-0.0127
 30
0.0
 11
0.3556
 21
-0.0127
 31
0.0
 12
-0.3556
 22
0.0127
 32
0.0
 13
0.3556
 23
0.0127
 33
0.0
  0
ENDBLK
  5
260
  330
4C
  100
AcDbEntity
  100
AcDbBlockEnd
  0
BLOCK
  5
261
  330
163
  100
AcDbEntity
  100
AcDbBlockBegin
  8
0
  2
D91RECTANGLE1_4224X0_0254
 70
     0
 10
0.0
 20
0.0
 30
0.0
  0
SOLID
  5
262
  330
4D
  100
AcDbEntity
  100
AcDbTrace
  8
0
 10
-0.7112
 20
-0.0127
 30
0.0
 11
0.7112
 21
-0.0127
 31
0.0
 12
-0.7112
 22
0.0127
 32
0.0
 13
0.7112
 23
0.0127
 33
0.0
  0
ENDBLK
  5
263
  330
4D
  100
AcDbEntity
  100
AcDbBlockEnd
  0
BLOCK
  5
264
  330
163
  100
AcDbEntity
  100
AcDbBlockBegin
  8
0
  2
D92RECTANGLE1_4986X0_0254
 70
     0
 10
0.0
 20
0.0
 30
0.0
  0
SOLID
  5
265
  330
4E
  100
AcDbEntity
  100
AcDbTrace
  8
0
 10
-0.7493
 20
-0.0127
 30
0.0
 11
0.7493
 21
-0.0127
 31
0.0
 12
-0.7493
 22
0.0127
 32
0.0
 13
0.7493
 23
0.0127
 33
0.0
  0
ENDBLK
  5
266
  330
4E
  100
AcDbEntity
  100
AcDbBlockEnd
  0
BLOCK
  5
267
  330
163
  100
AcDbEntity
  100
AcDbBlockBegin
  8
0
  2
D93RECTANGLE1_6256X0_0254
 70
     0
 10
0.0
 20
0.0
 30
0.0
  0
SOLID
  5
268
  330
4F
  100
AcDbEntity
  100
AcDbTrace
  8
0
 10
-0.8128
 20
-0.0127
 30
0.0
 11
0.8128
 21
-0.0127
 31
0.0
 12
-0.8128
 22
0.0127
 32
0.0
 13
0.8128
 23
0.0127
 33
0.0
  0
ENDBLK
  5
269
  330
4F
  100
AcDbEntity
  100
AcDbBlockEnd
  0
BLOCK
  5
26A
  330
163
  100
AcDbEntity
  100
AcDbBlockBegin
  8
0
  2
D94RECTANGLE0_2286X0_0254
 70
     0
 10
0.0
 20
0.0
 30
0.0
  0
SOLID
  5
26B
  330
50
  100
AcDbEntity
  100
AcDbTrace
  8
0
 10
-0.1143
 20
-0.0127
 30
0.0
 11
0.1143
 21
-0.0127
 31
0.0
 12
-0.1143
 22
0.0127
 32
0.0
 13
0.1143
 23
0.0127
 33
0.0
  0
ENDBLK
  5
26C
  330
50
  100
AcDbEntity
  100
AcDbBlockEnd
  0
BLOCK
  5
26D
  330
163
  100
AcDbEntity
  100
AcDbBlockBegin
  8
0
  2
D95RECTANGLE0_127X0_0254
 70
     0
 10
0.0
 20
0.0
 30
0.0
  0
SOLID
  5
26E
  330
51
  100
AcDbEntity
  100
AcDbTrace
  8
0
 10
-0.0635
 20
-0.0127
 30
0.0
 11
0.0635
 21
-0.0127
 31
0.0
 12
-0.0635
 22
0.0127
 32
0.0
 13
0.0635
 23
0.0127
 33
0.0
  0
ENDBLK
  5
26F
  330
51
  100
AcDbEntity
  100
AcDbBlockEnd
  0
BLOCK
  5
270
  330
163
  100
AcDbEntity
  100
AcDbBlockBegin
  8
0
  2
D96RECTANGLE1_4732X0_0254
 70
     0
 10
0.0
 20
0.0
 30
0.0
  0
SOLID
  5
271
  330
52
  100
AcDbEntity
  100
AcDbTrace
  8
0
 10
-0.736600
 20
-0.0127
 30
0.0
 11
0.736600
 21
-0.0127
 31
0.0
 12
-0.736600
 22
0.0127
 32
0.0
 13
0.736600
 23
0.0127
 33
0.0
  0
ENDBLK
  5
272
  330
52
  100
AcDbEntity
  100
AcDbBlockEnd
  0
BLOCK
  5
273
  330
163
  100
AcDbEntity
  100
AcDbBlockBegin
  8
0
  2
D97RECTANGLE1_3208X0_0254
 70
     0
 10
0.0
 20
0.0
 30
0.0
  0
SOLID
  5
274
  330
53
  100
AcDbEntity
  100
AcDbTrace
  8
0
 10
-0.6604
 20
-0.0127
 30
0.0
 11
0.6604
 21
-0.0127
 31
0.0
 12
-0.6604
 22
0.0127
 32
0.0
 13
0.6604
 23
0.0127
 33
0.0
  0
ENDBLK
  5
275
  330
53
  100
AcDbEntity
  100
AcDbBlockEnd
  0
BLOCK
  5
276
  330
163
  100
AcDbEntity
  100
AcDbBlockBegin
  8
0
  2
D98RECTANGLE1_2446X0_0254
 70
     0
 10
0.0
 20
0.0
 30
0.0
  0
SOLID
  5
277
  330
54
  100
AcDbEntity
  100
AcDbTrace
  8
0
 10
-0.6223
 20
-0.0127
 30
0.0
 11
0.6223
 21
-0.0127
 31
0.0
 12
-0.6223
 22
0.0127
 32
0.0
 13
0.6223
 23
0.0127
 33
0.0
  0
ENDBLK
  5
278
  330
54
  100
AcDbEntity
  100
AcDbBlockEnd
  0
BLOCK
  5
279
  330
163
  100
AcDbEntity
  100
AcDbBlockBegin
  8
0
  2
D100RECTANGLE26_7969X0_2286
 70
     0
 10
0.0
 20
0.0
 30
0.0
  0
SOLID
  5
27A
  330
55
  100
AcDbEntity
  100
AcDbTrace
  8
0
 10
-13.398475
 20
-0.1143
 30
0.0
 11
13.398475
 21
-0.1143
 31
0.0
 12
-13.398475
 22
0.1143
 32
0.0
 13
13.398475
 23
0.1143
 33
0.0
  0
ENDBLK
  5
27B
  330
55
  100
AcDbEntity
  100
AcDbBlockEnd
  0
BLOCK
  5
27C
  330
163
  100
AcDbEntity
  100
AcDbBlockBegin
  8
0
  2
D101RECTANGLE5_58799X0_0254
 70
     0
 10
0.0
 20
0.0
 30
0.0
  0
SOLID
  5
27D
  330
56
  100
AcDbEntity
  100
AcDbTrace
  8
0
 10
-2.793995
 20
-0.0127
 30
0.0
 11
2.793995
 21
-0.0127
 31
0.0
 12
-2.793995
 22
0.0127
 32
0.0
 13
2.793995
 23
0.0127
 33
0.0
  0
ENDBLK
  5
27E
  330
56
  100
AcDbEntity
  100
AcDbBlockEnd
  0
BLOCK
  5
27F
  330
163
  100
AcDbEntity
  100
AcDbBlockBegin
  8
0
  2
D102RECTANGLE15_1384X0_0254
 70
     0
 10
0.0
 20
0.0
 30
0.0
  0
SOLID
  5
280
  330
57
  100
AcDbEntity
  100
AcDbTrace
  8
0
 10
-7.569185
 20
-0.0127
 30
0.0
 11
7.569185
 21
-0.0127
 31
0.0
 12
-7.569185
 22
0.0127
 32
0.0
 13
7.569185
 23
0.0127
 33
0.0
  0
ENDBLK
  5
281
  330
57
  100
AcDbEntity
  100
AcDbBlockEnd
  0
BLOCK
  5
282
  330
163
  100
AcDbEntity
  100
AcDbBlockBegin
  8
0
  2
D103RECTANGLE5_66419X0_0254
 70
     0
 10
0.0
 20
0.0
 30
0.0
  0
SOLID
  5
283
  330
58
  100
AcDbEntity
  100
AcDbTrace
  8
0
 10
-2.832095
 20
-0.0127
 30
0.0
 11
2.832095
 21
-0.0127
 31
0.0
 12
-2.832095
 22
0.0127
 32
0.0
 13
2.832095
 23
0.0127
 33
0.0
  0
ENDBLK
  5
284
  330
58
  100
AcDbEntity
  100
AcDbBlockEnd
  0
BLOCK
  5
285
  330
163
  100
AcDbEntity
  100
AcDbBlockBegin
  8
0
  2
D104RECTANGLE5_51179X0_0254
 70
     0
 10
0.0
 20
0.0
 30
0.0
  0
SOLID
  5
286
  330
59
  100
AcDbEntity
  100
AcDbTrace
  8
0
 10
-2.755895
 20
-0.0127
 30
0.0
 11
2.755895
 21
-0.0127
 31
0.0
 12
-2.755895
 22
0.0127
 32
0.0
 13
2.755895
 23
0.0127
 33
0.0
  0
ENDBLK
  5
287
  330
59
  100
AcDbEntity
  100
AcDbBlockEnd
  0
BLOCK
  5
288
  330
163
  100
AcDbEntity
  100
AcDbBlockBegin
  8
0
  2
D105RECTANGLE14_986X0_0254
 70
     0
 10
0.0
 20
0.0
 30
0.0
  0
SOLID
  5
289
  330
5A
  100
AcDbEntity
  100
AcDbTrace
  8
0
 10
-7.492985
 20
-0.0127
 30
0.0
 11
7.492985
 21
-0.0127
 31
0.0
 12
-7.492985
 22
0.0127
 32
0.0
 13
7.492985
 23
0.0127
 33
0.0
  0
ENDBLK
  5
28A
  330
5A
  100
AcDbEntity
  100
AcDbBlockEnd
  0
BLOCK
  5
28B
  330
163
  100
AcDbEntity
  100
AcDbBlockBegin
  8
0
  2
D106RECTANGLE5_43559X0_0254
 70
     0
 10
0.0
 20
0.0
 30
0.0
  0
SOLID
  5
28C
  330
5B
  100
AcDbEntity
  100
AcDbTrace
  8
0
 10
-2.717795
 20
-0.0127
 30
0.0
 11
2.717795
 21
-0.0127
 31
0.0
 12
-2.717795
 22
0.0127
 32
0.0
 13
2.717795
 23
0.0127
 33
0.0
  0
ENDBLK
  5
28D
  330
5B
  100
AcDbEntity
  100
AcDbBlockEnd
  0
BLOCK
  5
28E
  330
163
  100
AcDbEntity
  100
AcDbBlockBegin
  8
0
  2
D107RECTANGLE14_8082X0_0254
 70
     0
 10
0.0
 20
0.0
 30
0.0
  0
SOLID
  5
28F
  330
5C
  100
AcDbEntity
  100
AcDbTrace
  8
0
 10
-7.404085
 20
-0.0127
 30
0.0
 11
7.404085
 21
-0.0127
 31
0.0
 12
-7.404085
 22
0.0127
 32
0.0
 13
7.404085
 23
0.0127
 33
0.0
  0
ENDBLK
  5
290
  330
5C
  100
AcDbEntity
  100
AcDbBlockEnd
  0
BLOCK
  5
291
  330
163
  100
AcDbEntity
  100
AcDbBlockBegin
  8
0
  2
D108RECTANGLE5_56259X0_0254
 70
     0
 10
0.0
 20
0.0
 30
0.0
  0
SOLID
  5
292
  330
5D
  100
AcDbEntity
  100
AcDbTrace
  8
0
 10
-2.781295
 20
-0.0127
 30
0.0
 11
2.781295
 21
-0.0127
 31
0.0
 12
-2.781295
 22
0.0127
 32
0.0
 13
2.781295
 23
0.0127
 33
0.0
  0
ENDBLK
  5
293
  330
5D
  100
AcDbEntity
  100
AcDbBlockEnd
  0
BLOCK
  5
294
  330
163
  100
AcDbEntity
  100
AcDbBlockBegin
  8
0
  2
D109RECTANGLE5_38479X0_0254
 70
     0
 10
0.0
 20
0.0
 30
0.0
  0
SOLID
  5
295
  330
5E
  100
AcDbEntity
  100
AcDbTrace
  8
0
 10
-2.692395
 20
-0.0127
 30
0.0
 11
2.692395
 21
-0.0127
 31
0.0
 12
-2.692395
 22
0.0127
 32
0.0
 13
2.692395
 23
0.0127
 33
0.0
  0
ENDBLK
  5
296
  330
5E
  100
AcDbEntity
  100
AcDbBlockEnd
  0
BLOCK
  5
297
  330
163
  100
AcDbEntity
  100
AcDbBlockBegin
  8
0
  2
D110RECTANGLE14_7574X0_0254
 70
     0
 10
0.0
 20
0.0
 30
0.0
  0
SOLID
  5
298
  330
5F
  100
AcDbEntity
  100
AcDbTrace
  8
0
 10
-7.378685
 20
-0.0127
 30
0.0
 11
7.378685
 21
-0.0127
 31
0.0
 12
-7.378685
 22
0.0127
 32
0.0
 13
7.378685
 23
0.0127
 33
0.0
  0
ENDBLK
  5
299
  330
5F
  100
AcDbEntity
  100
AcDbBlockEnd
  0
BLOCK
  5
29A
  330
163
  100
AcDbEntity
  100
AcDbBlockBegin
  8
0
  2
D111RECTANGLE5_33399X0_0254
 70
     0
 10
0.0
 20
0.0
 30
0.0
  0
SOLID
  5
29B
  330
60
  100
AcDbEntity
  100
AcDbTrace
  8
0
 10
-2.666995
 20
-0.0127
 30
0.0
 11
2.666995
 21
-0.0127
 31
0.0
 12
-2.666995
 22
0.0127
 32
0.0
 13
2.666995
 23
0.0127
 33
0.0
  0
ENDBLK
  5
29C
  330
60
  100
AcDbEntity
  100
AcDbBlockEnd
  0
BLOCK
  5
29D
  330
163
  100
AcDbEntity
  100
AcDbBlockBegin
  8
0
  2
D112RECTANGLE14_6812X0_0254
 70
     0
 10
0.0
 20
0.0
 30
0.0
  0
SOLID
  5
29E
  330
61
  100
AcDbEntity
  100
AcDbTrace
  8
0
 10
-7.340585
 20
-0.0127
 30
0.0
 11
7.340585
 21
-0.0127
 31
0.0
 12
-7.340585
 22
0.0127
 32
0.0
 13
7.340585
 23
0.0127
 33
0.0
  0
ENDBLK
  5
29F
  330
61
  100
AcDbEntity
  100
AcDbBlockEnd
  0
BLOCK
  5
2A0
  330
163
  100
AcDbEntity
  100
AcDbBlockBegin
  8
0
  2
D113RECTANGLE5_51179X0_0508
 70
     0
 10
0.0
 20
0.0
 30
0.0
  0
SOLID
  5
2A1
  330
62
  100
AcDbEntity
  100
AcDbTrace
  8
0
 10
-2.755895
 20
-0.0254
 30
0.0
 11
2.755895
 21
-0.0254
 31
0.0
 12
-2.755895
 22
0.0254
 32
0.0
 13
2.755895
 23
0.0254
 33
0.0
  0
ENDBLK
  5
2A2
  330
62
  100
AcDbEntity
  100
AcDbBlockEnd
  0
BLOCK
  5
2A3
  330
163
  100
AcDbEntity
  100
AcDbBlockBegin
  8
0
  2
D114RECTANGLE5_30859X0_0254
 70
     0
 10
0.0
 20
0.0
 30
0.0
  0
SOLID
  5
2A4
  330
63
  100
AcDbEntity
  100
AcDbTrace
  8
0
 10
-2.654295
 20
-0.0127
 30
0.0
 11
2.654295
 21
-0.0127
 31
0.0
 12
-2.654295
 22
0.0127
 32
0.0
 13
2.654295
 23
0.0127
 33
0.0
  0
ENDBLK
  5
2A5
  330
63
  100
AcDbEntity
  100
AcDbBlockEnd
  0
BLOCK
  5
2A6
  330
163
  100
AcDbEntity
  100
AcDbBlockBegin
  8
0
  2
D115RECTANGLE14_6558X0_0254
 70
     0
 10
0.0
 20
0.0
 30
0.0
  0
SOLID
  5
2A7
  330
64
  100
AcDbEntity
  100
AcDbTrace
  8
0
 10
-7.327885
 20
-0.0127
 30
0.0
 11
7.327885
 21
-0.0127
 31
0.0
 12
-7.327885
 22
0.0127
 32
0.0
 13
7.327885
 23
0.0127
 33
0.0
  0
ENDBLK
  5
2A8
  330
64
  100
AcDbEntity
  100
AcDbBlockEnd
  0
BLOCK
  5
2A9
  330
163
  100
AcDbEntity
  100
AcDbBlockBegin
  8
0
  2
D116RECTANGLE5_25779X0_0254
 70
     0
 10
0.0
 20
0.0
 30
0.0
  0
SOLID
  5
2AA
  330
65
  100
AcDbEntity
  100
AcDbTrace
  8
0
 10
-2.628895
 20
-0.0127
 30
0.0
 11
2.628895
 21
-0.0127
 31
0.0
 12
-2.628895
 22
0.0127
 32
0.0
 13
2.628895
 23
0.0127
 33
0.0
  0
ENDBLK
  5
2AB
  330
65
  100
AcDbEntity
  100
AcDbBlockEnd
  0
BLOCK
  5
2AC
  330
163
  100
AcDbEntity
  100
AcDbBlockBegin
  8
0
  2
D117RECTANGLE14_605X0_0254
 70
     0
 10
0.0
 20
0.0
 30
0.0
  0
SOLID
  5
2AD
  330
66
  100
AcDbEntity
  100
AcDbTrace
  8
0
 10
-7.302485
 20
-0.0127
 30
0.0
 11
7.302485
 21
-0.0127
 31
0.0
 12
-7.302485
 22
0.0127
 32
0.0
 13
7.302485
 23
0.0127
 33
0.0
  0
ENDBLK
  5
2AE
  330
66
  100
AcDbEntity
  100
AcDbBlockEnd
  0
BLOCK
  5
2AF
  330
163
  100
AcDbEntity
  100
AcDbBlockBegin
  8
0
  2
D118RECTANGLE5_23239X0_0254
 70
     0
 10
0.0
 20
0.0
 30
0.0
  0
SOLID
  5
2B0
  330
67
  100
AcDbEntity
  100
AcDbTrace
  8
0
 10
-2.616195
 20
-0.0127
 30
0.0
 11
2.616195
 21
-0.0127
 31
0.0
 12
-2.616195
 22
0.0127
 32
0.0
 13
2.616195
 23
0.0127
 33
0.0
  0
ENDBLK
  5
2B1
  330
67
  100
AcDbEntity
  100
AcDbBlockEnd
  0
BLOCK
  5
2B2
  330
163
  100
AcDbEntity
  100
AcDbBlockBegin
  8
0
  2
D119RECTANGLE14_5796X0_0254
 70
     0
 10
0.0
 20
0.0
 30
0.0
  0
SOLID
  5
2B3
  330
68
  100
AcDbEntity
  100
AcDbTrace
  8
0
 10
-7.289785
 20
-0.0127
 30
0.0
 11
7.289785
 21
-0.0127
 31
0.0
 12
-7.289785
 22
0.0127
 32
0.0
 13
7.289785
 23
0.0127
 33
0.0
  0
ENDBLK
  5
2B4
  330
68
  100
AcDbEntity
  100
AcDbBlockEnd
  0
BLOCK
  5
2B5
  330
163
  100
AcDbEntity
  100
AcDbBlockBegin
  8
0
  2
D120RECTANGLE5_48639X0_0762
 70
     0
 10
0.0
 20
0.0
 30
0.0
  0
SOLID
  5
2B6
  330
69
  100
AcDbEntity
  100
AcDbTrace
  8
0
 10
-2.743195
 20
-0.0381
 30
0.0
 11
2.743195
 21
-0.0381
 31
0.0
 12
-2.743195
 22
0.0381
 32
0.0
 13
2.743195
 23
0.0381
 33
0.0
  0
ENDBLK
  5
2B7
  330
69
  100
AcDbEntity
  100
AcDbBlockEnd
  0
BLOCK
  5
2B8
  330
163
  100
AcDbEntity
  100
AcDbBlockBegin
  8
0
  2
D121RECTANGLE14_5542X0_0254
 70
     0
 10
0.0
 20
0.0
 30
0.0
  0
SOLID
  5
2B9
  330
6A
  100
AcDbEntity
  100
AcDbTrace
  8
0
 10
-7.277085
 20
-0.0127
 30
0.0
 11
7.277085
 21
-0.0127
 31
0.0
 12
-7.277085
 22
0.0127
 32
0.0
 13
7.277085
 23
0.0127
 33
0.0
  0
ENDBLK
  5
2BA
  330
6A
  100
AcDbEntity
  100
AcDbBlockEnd
  0
BLOCK
  5
2BB
  330
163
  100
AcDbEntity
  100
AcDbBlockBegin
  8
0
  2
D122RECTANGLE5_20699X0_0508
 70
     0
 10
0.0
 20
0.0
 30
0.0
  0
SOLID
  5
2BC
  330
6B
  100
AcDbEntity
  100
AcDbTrace
  8
0
 10
-2.603495
 20
-0.0254
 30
0.0
 11
2.603495
 21
-0.0254
 31
0.0
 12
-2.603495
 22
0.0254
 32
0.0
 13
2.603495
 23
0.0254
 33
0.0
  0
ENDBLK
  5
2BD
  330
6B
  100
AcDbEntity
  100
AcDbBlockEnd
  0
BLOCK
  5
2BE
  330
163
  100
AcDbEntity
  100
AcDbBlockBegin
  8
0
  2
D123RECTANGLE14_5288X0_0254
 70
     0
 10
0.0
 20
0.0
 30
0.0
  0
SOLID
  5
2BF
  330
6C
  100
AcDbEntity
  100
AcDbTrace
  8
0
 10
-7.264385
 20
-0.0127
 30
0.0
 11
7.264385
 21
-0.0127
 31
0.0
 12
-7.264385
 22
0.0127
 32
0.0
 13
7.264385
 23
0.0127
 33
0.0
  0
ENDBLK
  5
2C0
  330
6C
  100
AcDbEntity
  100
AcDbBlockEnd
  0
BLOCK
  5
2C1
  330
163
  100
AcDbEntity
  100
AcDbBlockBegin
  8
0
  2
D124RECTANGLE5_94359X0_0508
 70
     0
 10
0.0
 20
0.0
 30
0.0
  0
SOLID
  5
2C2
  330
6D
  100
AcDbEntity
  100
AcDbTrace
  8
0
 10
-2.971795
 20
-0.0254
 30
0.0
 11
2.971795
 21
-0.0254
 31
0.0
 12
-2.971795
 22
0.0254
 32
0.0
 13
2.971795
 23
0.0254
 33
0.0
  0
ENDBLK
  5
2C3
  330
6D
  100
AcDbEntity
  100
AcDbBlockEnd
  0
BLOCK
  5
2C4
  330
163
  100
AcDbEntity
  100
AcDbBlockBegin
  8
0
  2
D125RECTANGLE6_19759X0_0254
 70
     0
 10
0.0
 20
0.0
 30
0.0
  0
SOLID
  5
2C5
  330
6E
  100
AcDbEntity
  100
AcDbTrace
  8
0
 10
-3.098795
 20
-0.0127
 30
0.0
 11
3.098795
 21
-0.0127
 31
0.0
 12
-3.098795
 22
0.0127
 32
0.0
 13
3.098795
 23
0.0127
 33
0.0
  0
ENDBLK
  5
2C6
  330
6E
  100
AcDbEntity
  100
AcDbBlockEnd
  0
BLOCK
  5
2C7
  330
163
  100
AcDbEntity
  100
AcDbBlockBegin
  8
0
  2
D126RECTANGLE6_98499X0_0254
 70
     0
 10
0.0
 20
0.0
 30
0.0
  0
SOLID
  5
2C8
  330
6F
  100
AcDbEntity
  100
AcDbTrace
  8
0
 10
-3.492495
 20
-0.0127
 30
0.0
 11
3.492495
 21
-0.0127
 31
0.0
 12
-3.492495
 22
0.0127
 32
0.0
 13
3.492495
 23
0.0127
 33
0.0
  0
ENDBLK
  5
2C9
  330
6F
  100
AcDbEntity
  100
AcDbBlockEnd
  0
BLOCK
  5
2CA
  330
163
  100
AcDbEntity
  100
AcDbBlockBegin
  8
0
  2
D127RECTANGLE2_0574X0_0254
 70
     0
 10
0.0
 20
0.0
 30
0.0
  0
SOLID
  5
2CB
  330
70
  100
AcDbEntity
  100
AcDbTrace
  8
0
 10
-1.028700
 20
-0.0127
 30
0.0
 11
1.028700
 21
-0.0127
 31
0.0
 12
-1.028700
 22
0.0127
 32
0.0
 13
1.028700
 23
0.0127
 33
0.0
  0
ENDBLK
  5
2CC
  330
70
  100
AcDbEntity
  100
AcDbBlockEnd
  0
BLOCK
  5
2CD
  330
163
  100
AcDbEntity
  100
AcDbBlockBegin
  8
0
  2
D128RECTANGLE2_4638X0_0254
 70
     0
 10
0.0
 20
0.0
 30
0.0
  0
SOLID
  5
2CE
  330
71
  100
AcDbEntity
  100
AcDbTrace
  8
0
 10
-1.2319
 20
-0.0127
 30
0.0
 11
1.2319
 21
-0.0127
 31
0.0
 12
-1.2319
 22
0.0127
 32
0.0
 13
1.2319
 23
0.0127
 33
0.0
  0
ENDBLK
  5
2CF
  330
71
  100
AcDbEntity
  100
AcDbBlockEnd
  0
BLOCK
  5
2D0
  330
163
  100
AcDbEntity
  100
AcDbBlockBegin
  8
0
  2
D129RECTANGLE2_2098X0_0254
 70
     0
 10
0.0
 20
0.0
 30
0.0
  0
SOLID
  5
2D1
  330
72
  100
AcDbEntity
  100
AcDbTrace
  8
0
 10
-1.104900
 20
-0.0127
 30
0.0
 11
1.104900
 21
-0.0127
 31
0.0
 12
-1.104900
 22
0.0127
 32
0.0
 13
1.104900
 23
0.0127
 33
0.0
  0
ENDBLK
  5
2D2
  330
72
  100
AcDbEntity
  100
AcDbBlockEnd
  0
BLOCK
  5
2D3
  330
163
  100
AcDbEntity
  100
AcDbBlockBegin
  8
0
  2
D130RECTANGLE1_7526X0_0254
 70
     0
 10
0.0
 20
0.0
 30
0.0
  0
SOLID
  5
2D4
  330
73
  100
AcDbEntity
  100
AcDbTrace
  8
0
 10
-0.8763
 20
-0.0127
 30
0.0
 11
0.8763
 21
-0.0127
 31
0.0
 12
-0.8763
 22
0.0127
 32
0.0
 13
0.8763
 23
0.0127
 33
0.0
  0
ENDBLK
  5
2D5
  330
73
  100
AcDbEntity
  100
AcDbBlockEnd
  0
BLOCK
  5
2D6
  330
163
  100
AcDbEntity
  100
AcDbBlockBegin
  8
0
  2
D131RECTANGLE2_032X0_0254
 70
     0
 10
0.0
 20
0.0
 30
0.0
  0
SOLID
  5
2D7
  330
74
  100
AcDbEntity
  100
AcDbTrace
  8
0
 10
-1.016
 20
-0.0127
 30
0.0
 11
1.016
 21
-0.0127
 31
0.0
 12
-1.016
 22
0.0127
 32
0.0
 13
1.016
 23
0.0127
 33
0.0
  0
ENDBLK
  5
2D8
  330
74
  100
AcDbEntity
  100
AcDbBlockEnd
  0
BLOCK
  5
2D9
  330
163
  100
AcDbEntity
  100
AcDbBlockBegin
  8
0
  2
D132RECTANGLE0_6604X0_0508
 70
     0
 10
0.0
 20
0.0
 30
0.0
  0
SOLID
  5
2DA
  330
75
  100
AcDbEntity
  100
AcDbTrace
  8
0
 10
-0.3302
 20
-0.0254
 30
0.0
 11
0.3302
 21
-0.0254
 31
0.0
 12
-0.3302
 22
0.0254
 32
0.0
 13
0.3302
 23
0.0254
 33
0.0
  0
ENDBLK
  5
2DB
  330
75
  100
AcDbEntity
  100
AcDbBlockEnd
  0
BLOCK
  5
2DC
  330
163
  100
AcDbEntity
  100
AcDbBlockBegin
  8
0
  2
D133RECTANGLE0_635X0_0508
 70
     0
 10
0.0
 20
0.0
 30
0.0
  0
SOLID
  5
2DD
  330
76
  100
AcDbEntity
  100
AcDbTrace
  8
0
 10
-0.3175
 20
-0.0254
 30
0.0
 11
0.3175
 21
-0.0254
 31
0.0
 12
-0.3175
 22
0.0254
 32
0.0
 13
0.3175
 23
0.0254
 33
0.0
  0
ENDBLK
  5
2DE
  330
76
  100
AcDbEntity
  100
AcDbBlockEnd
  0
BLOCK
  5
2DF
  330
163
  100
AcDbEntity
  100
AcDbBlockBegin
  8
0
  2
D134RECTANGLE0_4572X0_0508
 70
     0
 10
0.0
 20
0.0
 30
0.0
  0
SOLID
  5
2E0
  330
77
  100
AcDbEntity
  100
AcDbTrace
  8
0
 10
-0.2286
 20
-0.0254
 30
0.0
 11
0.2286
 21
-0.0254
 31
0.0
 12
-0.2286
 22
0.0254
 32
0.0
 13
0.2286
 23
0.0254
 33
0.0
  0
ENDBLK
  5
2E1
  330
77
  100
AcDbEntity
  100
AcDbBlockEnd
  0
BLOCK
  5
2E2
  330
163
  100
AcDbEntity
  100
AcDbBlockBegin
  8
0
  2
D135RECTANGLE1_7018X0_0254
 70
     0
 10
0.0
 20
0.0
 30
0.0
  0
SOLID
  5
2E3
  330
78
  100
AcDbEntity
  100
AcDbTrace
  8
0
 10
-0.8509
 20
-0.0127
 30
0.0
 11
0.8509
 21
-0.0127
 31
0.0
 12
-0.8509
 22
0.0127
 32
0.0
 13
0.8509
 23
0.0127
 33
0.0
  0
ENDBLK
  5
2E4
  330
78
  100
AcDbEntity
  100
AcDbBlockEnd
  0
BLOCK
  5
2E5
  330
163
  100
AcDbEntity
  100
AcDbBlockBegin
  8
0
  2
D136RECTANGLE0_5334X0_0508
 70
     0
 10
0.0
 20
0.0
 30
0.0
  0
SOLID
  5
2E6
  330
79
  100
AcDbEntity
  100
AcDbTrace
  8
0
 10
-0.2667
 20
-0.0254
 30
0.0
 11
0.2667
 21
-0.0254
 31
0.0
 12
-0.2667
 22
0.0254
 32
0.0
 13
0.2667
 23
0.0254
 33
0.0
  0
ENDBLK
  5
2E7
  330
79
  100
AcDbEntity
  100
AcDbBlockEnd
  0
BLOCK
  5
2E8
  330
163
  100
AcDbEntity
  100
AcDbBlockBegin
  8
0
  2
D137RECTANGLE0_4064X0_0508
 70
     0
 10
0.0
 20
0.0
 30
0.0
  0
SOLID
  5
2E9
  330
7A
  100
AcDbEntity
  100
AcDbTrace
  8
0
 10
-0.2032
 20
-0.0254
 30
0.0
 11
0.2032
 21
-0.0254
 31
0.0
 12
-0.2032
 22
0.0254
 32
0.0
 13
0.2032
 23
0.0254
 33
0.0
  0
ENDBLK
  5
2EA
  330
7A
  100
AcDbEntity
  100
AcDbBlockEnd
  0
BLOCK
  5
2EB
  330
163
  100
AcDbEntity
  100
AcDbBlockBegin
  8
0
  2
D138RECTANGLE1_778X0_0508
 70
     0
 10
0.0
 20
0.0
 30
0.0
  0
SOLID
  5
2EC
  330
7B
  100
AcDbEntity
  100
AcDbTrace
  8
0
 10
-0.889
 20
-0.0254
 30
0.0
 11
0.889
 21
-0.0254
 31
0.0
 12
-0.889
 22
0.0254
 32
0.0
 13
0.889
 23
0.0254
 33
0.0
  0
ENDBLK
  5
2ED
  330
7B
  100
AcDbEntity
  100
AcDbBlockEnd
  0
BLOCK
  5
2EE
  330
163
  100
AcDbEntity
  100
AcDbBlockBegin
  8
0
  2
D139SQUARE0_0254X0_0254
 70
     0
 10
0.0
 20
0.0
 30
0.0
  0
SOLID
  5
2EF
  330
7C
  100
AcDbEntity
  100
AcDbTrace
  8
0
 10
-0.0127
 20
-0.0127
 30
0.0
 11
0.0127
 21
-0.0127
 31
0.0
 12
-0.0127
 22
0.0127
 32
0.0
 13
0.0127
 23
0.0127
 33
0.0
  0
ENDBLK
  5
2F0
  330
7C
  100
AcDbEntity
  100
AcDbBlockEnd
  0
BLOCK
  5
2F1
  330
163
  100
AcDbEntity
  100
AcDbBlockBegin
  8
0
  2
D140RECTANGLE0_4826X0_0508
 70
     0
 10
0.0
 20
0.0
 30
0.0
  0
SOLID
  5
2F2
  330
7D
  100
AcDbEntity
  100
AcDbTrace
  8
0
 10
-0.2413
 20
-0.0254
 30
0.0
 11
0.2413
 21
-0.0254
 31
0.0
 12
-0.2413
 22
0.0254
 32
0.0
 13
0.2413
 23
0.0254
 33
0.0
  0
ENDBLK
  5
2F3
  330
7D
  100
AcDbEntity
  100
AcDbBlockEnd
  0
BLOCK
  5
2F4
  330
163
  100
AcDbEntity
  100
AcDbBlockBegin
  8
0
  2
D141RECTANGLE1_7272X0_0508
 70
     0
 10
0.0
 20
0.0
 30
0.0
  0
SOLID
  5
2F5
  330
7E
  100
AcDbEntity
  100
AcDbTrace
  8
0
 10
-0.863600
 20
-0.0254
 30
0.0
 11
0.863600
 21
-0.0254
 31
0.0
 12
-0.863600
 22
0.0254
 32
0.0
 13
0.863600
 23
0.0254
 33
0.0
  0
ENDBLK
  5
2F6
  330
7E
  100
AcDbEntity
  100
AcDbBlockEnd
  0
BLOCK
  5
2F7
  330
163
  100
AcDbEntity
  100
AcDbBlockBegin
  8
0
  2
D142RECTANGLE0_7112X0_0508
 70
     0
 10
0.0
 20
0.0
 30
0.0
  0
SOLID
  5
2F8
  330
7F
  100
AcDbEntity
  100
AcDbTrace
  8
0
 10
-0.3556
 20
-0.0254
 30
0.0
 11
0.3556
 21
-0.0254
 31
0.0
 12
-0.3556
 22
0.0254
 32
0.0
 13
0.3556
 23
0.0254
 33
0.0
  0
ENDBLK
  5
2F9
  330
7F
  100
AcDbEntity
  100
AcDbBlockEnd
  0
BLOCK
  5
2FA
  330
163
  100
AcDbEntity
  100
AcDbBlockBegin
  8
0
  2
D143RECTANGLE1_6764X0_0254
 70
     0
 10
0.0
 20
0.0
 30
0.0
  0
SOLID
  5
2FB
  330
80
  100
AcDbEntity
  100
AcDbTrace
  8
0
 10
-0.8382
 20
-0.0127
 30
0.0
 11
0.8382
 21
-0.0127
 31
0.0
 12
-0.8382
 22
0.0127
 32
0.0
 13
0.8382
 23
0.0127
 33
0.0
  0
ENDBLK
  5
2FC
  330
80
  100
AcDbEntity
  100
AcDbBlockEnd
  0
BLOCK
  5
2FD
  330
163
  100
AcDbEntity
  100
AcDbBlockBegin
  8
0
  2
D144RECTANGLE1_6002X0_0508
 70
     0
 10
0.0
 20
0.0
 30
0.0
  0
SOLID
  5
2FE
  330
81
  100
AcDbEntity
  100
AcDbTrace
  8
0
 10
-0.800100
 20
-0.0254
 30
0.0
 11
0.800100
 21
-0.0254
 31
0.0
 12
-0.800100
 22
0.0254
 32
0.0
 13
0.800100
 23
0.0254
 33
0.0
  0
ENDBLK
  5
2FF
  330
81
  100
AcDbEntity
  100
AcDbBlockEnd
  0
BLOCK
  5
300
  330
163
  100
AcDbEntity
  100
AcDbBlockBegin
  8
0
  2
D145RECTANGLE0_762X0_0508
 70
     0
 10
0.0
 20
0.0
 30
0.0
  0
SOLID
  5
301
  330
82
  100
AcDbEntity
  100
AcDbTrace
  8
0
 10
-0.381
 20
-0.0254
 30
0.0
 11
0.381
 21
-0.0254
 31
0.0
 12
-0.381
 22
0.0254
 32
0.0
 13
0.381
 23
0.0254
 33
0.0
  0
ENDBLK
  5
302
  330
82
  100
AcDbEntity
  100
AcDbBlockEnd
  0
BLOCK
  5
303
  330
163
  100
AcDbEntity
  100
AcDbBlockBegin
  8
0
  2
D146RECTANGLE0_6858X0_0508
 70
     0
 10
0.0
 20
0.0
 30
0.0
  0
SOLID
  5
304
  330
83
  100
AcDbEntity
  100
AcDbTrace
  8
0
 10
-0.3429
 20
-0.0254
 30
0.0
 11
0.3429
 21
-0.0254
 31
0.0
 12
-0.3429
 22
0.0254
 32
0.0
 13
0.3429
 23
0.0254
 33
0.0
  0
ENDBLK
  5
305
  330
83
  100
AcDbEntity
  100
AcDbBlockEnd
  0
BLOCK
  5
306
  330
163
  100
AcDbEntity
  100
AcDbBlockBegin
  8
0
  2
D147RECTANGLE0_9144X0_0508
 70
     0
 10
0.0
 20
0.0
 30
0.0
  0
SOLID
  5
307
  330
84
  100
AcDbEntity
  100
AcDbTrace
  8
0
 10
-0.4572
 20
-0.0254
 30
0.0
 11
0.4572
 21
-0.0254
 31
0.0
 12
-0.4572
 22
0.0254
 32
0.0
 13
0.4572
 23
0.0254
 33
0.0
  0
ENDBLK
  5
308
  330
84
  100
AcDbEntity
  100
AcDbBlockEnd
  0
BLOCK
  5
309
  330
163
  100
AcDbEntity
  100
AcDbBlockBegin
  8
0
  2
D148RECTANGLE0_4318X0_0762
 70
     0
 10
0.0
 20
0.0
 30
0.0
  0
SOLID
  5
30A
  330
85
  100
AcDbEntity
  100
AcDbTrace
  8
0
 10
-0.2159
 20
-0.0381
 30
0.0
 11
0.2159
 21
-0.0381
 31
0.0
 12
-0.2159
 22
0.0381
 32
0.0
 13
0.2159
 23
0.0381
 33
0.0
  0
ENDBLK
  5
30B
  330
85
  100
AcDbEntity
  100
AcDbBlockEnd
  0
BLOCK
  5
30C
  330
163
  100
AcDbEntity
  100
AcDbBlockBegin
  8
0
  2
D149RECTANGLE0_9652X0_0508
 70
     0
 10
0.0
 20
0.0
 30
0.0
  0
SOLID
  5
30D
  330
86
  100
AcDbEntity
  100
AcDbTrace
  8
0
 10
-0.4826
 20
-0.0254
 30
0.0
 11
0.4826
 21
-0.0254
 31
0.0
 12
-0.4826
 22
0.0254
 32
0.0
 13
0.4826
 23
0.0254
 33
0.0
  0
ENDBLK
  5
30E
  330
86
  100
AcDbEntity
  100
AcDbBlockEnd
  0
BLOCK
  5
30F
  330
163
  100
AcDbEntity
  100
AcDbBlockBegin
  8
0
  2
D150RECTANGLE1_1176X0_0508
 70
     0
 10
0.0
 20
0.0
 30
0.0
  0
SOLID
  5
310
  330
87
  100
AcDbEntity
  100
AcDbTrace
  8
0
 10
-0.5588
 20
-0.0254
 30
0.0
 11
0.5588
 21
-0.0254
 31
0.0
 12
-0.5588
 22
0.0254
 32
0.0
 13
0.5588
 23
0.0254
 33
0.0
  0
ENDBLK
  5
311
  330
87
  100
AcDbEntity
  100
AcDbBlockEnd
  0
BLOCK
  5
312
  330
163
  100
AcDbEntity
  100
AcDbBlockBegin
  8
0
  2
D151RECTANGLE1_8034X0_0762
 70
     0
 10
0.0
 20
0.0
 30
0.0
  0
SOLID
  5
313
  330
88
  100
AcDbEntity
  100
AcDbTrace
  8
0
 10
-0.901700
 20
-0.0381
 30
0.0
 11
0.901700
 21
-0.0381
 31
0.0
 12
-0.901700
 22
0.0381
 32
0.0
 13
0.901700
 23
0.0381
 33
0.0
  0
ENDBLK
  5
314
  330
88
  100
AcDbEntity
  100
AcDbBlockEnd
  0
BLOCK
  5
315
  330
163
  100
AcDbEntity
  100
AcDbBlockBegin
  8
0
  2
D152RECTANGLE0_7366X0_0508
 70
     0
 10
0.0
 20
0.0
 30
0.0
  0
SOLID
  5
316
  330
89
  100
AcDbEntity
  100
AcDbTrace
  8
0
 10
-0.3683
 20
-0.0254
 30
0.0
 11
0.3683
 21
-0.0254
 31
0.0
 12
-0.3683
 22
0.0254
 32
0.0
 13
0.3683
 23
0.0254
 33
0.0
  0
ENDBLK
  5
317
  330
89
  100
AcDbEntity
  100
AcDbBlockEnd
  0
BLOCK
  5
318
  330
163
  100
AcDbEntity
  100
AcDbBlockBegin
  8
0
  2
D153RECTANGLE0_2032X0_0508
 70
     0
 10
0.0
 20
0.0
 30
0.0
  0
SOLID
  5
319
  330
8A
  100
AcDbEntity
  100
AcDbTrace
  8
0
 10
-0.1016
 20
-0.0254
 30
0.0
 11
0.1016
 21
-0.0254
 31
0.0
 12
-0.1016
 22
0.0254
 32
0.0
 13
0.1016
 23
0.0254
 33
0.0
  0
ENDBLK
  5
31A
  330
8A
  100
AcDbEntity
  100
AcDbBlockEnd
  0
BLOCK
  5
31B
  330
163
  100
AcDbEntity
  100
AcDbBlockBegin
  8
0
  2
D154RECTANGLE0_889X0_0508
 70
     0
 10
0.0
 20
0.0
 30
0.0
  0
SOLID
  5
31C
  330
8B
  100
AcDbEntity
  100
AcDbTrace
  8
0
 10
-0.4445
 20
-0.0254
 30
0.0
 11
0.4445
 21
-0.0254
 31
0.0
 12
-0.4445
 22
0.0254
 32
0.0
 13
0.4445
 23
0.0254
 33
0.0
  0
ENDBLK
  5
31D
  330
8B
  100
AcDbEntity
  100
AcDbBlockEnd
  0
BLOCK
  5
31E
  330
163
  100
AcDbEntity
  100
AcDbBlockBegin
  8
0
  2
D155RECTANGLE0_6096X0_0508
 70
     0
 10
0.0
 20
0.0
 30
0.0
  0
SOLID
  5
31F
  330
8C
  100
AcDbEntity
  100
AcDbTrace
  8
0
 10
-0.3048
 20
-0.0254
 30
0.0
 11
0.3048
 21
-0.0254
 31
0.0
 12
-0.3048
 22
0.0254
 32
0.0
 13
0.3048
 23
0.0254
 33
0.0
  0
ENDBLK
  5
320
  330
8C
  100
AcDbEntity
  100
AcDbBlockEnd
  0
BLOCK
  5
321
  330
163
  100
AcDbEntity
  100
AcDbBlockBegin
  8
0
  2
D156RECTANGLE0_508X0_0508
 70
     0
 10
0.0
 20
0.0
 30
0.0
  0
SOLID
  5
322
  330
8D
  100
AcDbEntity
  100
AcDbTrace
  8
0
 10
-0.254
 20
-0.0254
 30
0.0
 11
0.254
 21
-0.0254
 31
0.0
 12
-0.254
 22
0.0254
 32
0.0
 13
0.254
 23
0.0254
 33
0.0
  0
ENDBLK
  5
323
  330
8D
  100
AcDbEntity
  100
AcDbBlockEnd
  0
BLOCK
  5
324
  330
163
  100
AcDbEntity
  100
AcDbBlockBegin
  8
0
  2
D157RECTANGLE1_8542X0_0254
 70
     0
 10
0.0
 20
0.0
 30
0.0
  0
SOLID
  5
325
  330
8E
  100
AcDbEntity
  100
AcDbTrace
  8
0
 10
-0.927100
 20
-0.0127
 30
0.0
 11
0.927100
 21
-0.0127
 31
0.0
 12
-0.927100
 22
0.0127
 32
0.0
 13
0.927100
 23
0.0127
 33
0.0
  0
ENDBLK
  5
326
  330
8E
  100
AcDbEntity
  100
AcDbBlockEnd
  0
BLOCK
  5
327
  330
163
  100
AcDbEntity
  100
AcDbBlockBegin
  8
0
  2
D158RECTANGLE0_3556X0_0508
 70
     0
 10
0.0
 20
0.0
 30
0.0
  0
SOLID
  5
328
  330
8F
  100
AcDbEntity
  100
AcDbTrace
  8
0
 10
-0.1778
 20
-0.0254
 30
0.0
 11
0.1778
 21
-0.0254
 31
0.0
 12
-0.1778
 22
0.0254
 32
0.0
 13
0.1778
 23
0.0254
 33
0.0
  0
ENDBLK
  5
329
  330
8F
  100
AcDbEntity
  100
AcDbBlockEnd
  0
BLOCK
  5
32A
  330
163
  100
AcDbEntity
  100
AcDbBlockBegin
  8
0
  2
D159RECTANGLE1_5494X0_0254
 70
     0
 10
0.0
 20
0.0
 30
0.0
  0
SOLID
  5
32B
  330
90
  100
AcDbEntity
  100
AcDbTrace
  8
0
 10
-0.774700
 20
-0.0127
 30
0.0
 11
0.774700
 21
-0.0127
 31
0.0
 12
-0.774700
 22
0.0127
 32
0.0
 13
0.774700
 23
0.0127
 33
0.0
  0
ENDBLK
  5
32C
  330
90
  100
AcDbEntity
  100
AcDbBlockEnd
  0
BLOCK
  5
32D
  330
163
  100
AcDbEntity
  100
AcDbBlockBegin
  8
0
  2
D160RECTANGLE0_4318X0_0508
 70
     0
 10
0.0
 20
0.0
 30
0.0
  0
SOLID
  5
32E
  330
91
  100
AcDbEntity
  100
AcDbTrace
  8
0
 10
-0.2159
 20
-0.0254
 30
0.0
 11
0.2159
 21
-0.0254
 31
0.0
 12
-0.2159
 22
0.0254
 32
0.0
 13
0.2159
 23
0.0254
 33
0.0
  0
ENDBLK
  5
32F
  330
91
  100
AcDbEntity
  100
AcDbBlockEnd
  0
BLOCK
  5
330
  330
163
  100
AcDbEntity
  100
AcDbBlockBegin
  8
0
  2
D161RECTANGLE0_9906X0_0762
 70
     0
 10
0.0
 20
0.0
 30
0.0
  0
SOLID
  5
331
  330
92
  100
AcDbEntity
  100
AcDbTrace
  8
0
 10
-0.4953
 20
-0.0381
 30
0.0
 11
0.4953
 21
-0.0381
 31
0.0
 12
-0.4953
 22
0.0381
 32
0.0
 13
0.4953
 23
0.0381
 33
0.0
  0
ENDBLK
  5
332
  330
92
  100
AcDbEntity
  100
AcDbBlockEnd
  0
BLOCK
  5
333
  330
163
  100
AcDbEntity
  100
AcDbBlockBegin
  8
0
  2
D162RECTANGLE0_2286X0_0508
 70
     0
 10
0.0
 20
0.0
 30
0.0
  0
SOLID
  5
334
  330
93
  100
AcDbEntity
  100
AcDbTrace
  8
0
 10
-0.1143
 20
-0.0254
 30
0.0
 11
0.1143
 21
-0.0254
 31
0.0
 12
-0.1143
 22
0.0254
 32
0.0
 13
0.1143
 23
0.0254
 33
0.0
  0
ENDBLK
  5
335
  330
93
  100
AcDbEntity
  100
AcDbBlockEnd
  0
BLOCK
  5
336
  330
163
  100
AcDbEntity
  100
AcDbBlockBegin
  8
0
  2
D163RECTANGLE0_1778X0_0508
 70
     0
 10
0.0
 20
0.0
 30
0.0
  0
SOLID
  5
337
  330
94
  100
AcDbEntity
  100
AcDbTrace
  8
0
 10
-0.0889
 20
-0.0254
 30
0.0
 11
0.0889
 21
-0.0254
 31
0.0
 12
-0.0889
 22
0.0254
 32
0.0
 13
0.0889
 23
0.0254
 33
0.0
  0
ENDBLK
  5
338
  330
94
  100
AcDbEntity
  100
AcDbBlockEnd
  0
BLOCK
  5
339
  330
163
  100
AcDbEntity
  100
AcDbBlockBegin
  8
0
  2
D164RECTANGLE1_524X0_0762
 70
     0
 10
0.0
 20
0.0
 30
0.0
  0
SOLID
  5
33A
  330
95
  100
AcDbEntity
  100
AcDbTrace
  8
0
 10
-0.762
 20
-0.0381
 30
0.0
 11
0.762
 21
-0.0381
 31
0.0
 12
-0.762
 22
0.0381
 32
0.0
 13
0.762
 23
0.0381
 33
0.0
  0
ENDBLK
  5
33B
  330
95
  100
AcDbEntity
  100
AcDbBlockEnd
  0
BLOCK
  5
33C
  330
163
  100
AcDbEntity
  100
AcDbBlockBegin
  8
0
  2
D165RECTANGLE0_6604X0_0762
 70
     0
 10
0.0
 20
0.0
 30
0.0
  0
SOLID
  5
33D
  330
96
  100
AcDbEntity
  100
AcDbTrace
  8
0
 10
-0.3302
 20
-0.0381
 30
0.0
 11
0.3302
 21
-0.0381
 31
0.0
 12
-0.3302
 22
0.0381
 32
0.0
 13
0.3302
 23
0.0381
 33
0.0
  0
ENDBLK
  5
33E
  330
96
  100
AcDbEntity
  100
AcDbBlockEnd
  0
BLOCK
  5
33F
  330
163
  100
AcDbEntity
  100
AcDbBlockBegin
  8
0
  2
D166RECTANGLE1_6002X0_0762
 70
     0
 10
0.0
 20
0.0
 30
0.0
  0
SOLID
  5
340
  330
97
  100
AcDbEntity
  100
AcDbTrace
  8
0
 10
-0.800100
 20
-0.0381
 30
0.0
 11
0.800100
 21
-0.0381
 31
0.0
 12
-0.800100
 22
0.0381
 32
0.0
 13
0.800100
 23
0.0381
 33
0.0
  0
ENDBLK
  5
341
  330
97
  100
AcDbEntity
  100
AcDbBlockEnd
  0
BLOCK
  5
342
  330
163
  100
AcDbEntity
  100
AcDbBlockBegin
  8
0
  2
D167RECTANGLE1_905X0_0254
 70
     0
 10
0.0
 20
0.0
 30
0.0
  0
SOLID
  5
343
  330
98
  100
AcDbEntity
  100
AcDbTrace
  8
0
 10
-0.9525
 20
-0.0127
 30
0.0
 11
0.9525
 21
-0.0127
 31
0.0
 12
-0.9525
 22
0.0127
 32
0.0
 13
0.9525
 23
0.0127
 33
0.0
  0
ENDBLK
  5
344
  330
98
  100
AcDbEntity
  100
AcDbBlockEnd
  0
BLOCK
  5
345
  330
163
  100
AcDbEntity
  100
AcDbBlockBegin
  8
0
  2
D168RECTANGLE0_381X0_0762
 70
     0
 10
0.0
 20
0.0
 30
0.0
  0
SOLID
  5
346
  330
99
  100
AcDbEntity
  100
AcDbTrace
  8
0
 10
-0.1905
 20
-0.0381
 30
0.0
 11
0.1905
 21
-0.0381
 31
0.0
 12
-0.1905
 22
0.0381
 32
0.0
 13
0.1905
 23
0.0381
 33
0.0
  0
ENDBLK
  5
347
  330
99
  100
AcDbEntity
  100
AcDbBlockEnd
  0
BLOCK
  5
348
  330
163
  100
AcDbEntity
  100
AcDbBlockBegin
  8
0
  2
D169RECTANGLE0_889X0_127
 70
     0
 10
0.0
 20
0.0
 30
0.0
  0
SOLID
  5
349
  330
9A
  100
AcDbEntity
  100
AcDbTrace
  8
0
 10
-0.4445
 20
-0.0635
 30
0.0
 11
0.4445
 21
-0.0635
 31
0.0
 12
-0.4445
 22
0.0635
 32
0.0
 13
0.4445
 23
0.0635
 33
0.0
  0
ENDBLK
  5
34A
  330
9A
  100
AcDbEntity
  100
AcDbBlockEnd
  0
BLOCK
  5
34B
  330
163
  100
AcDbEntity
  100
AcDbBlockBegin
  8
0
  2
D170RECTANGLE0_8128X0_0508
 70
     0
 10
0.0
 20
0.0
 30
0.0
  0
SOLID
  5
34C
  330
9B
  100
AcDbEntity
  100
AcDbTrace
  8
0
 10
-0.4064
 20
-0.0254
 30
0.0
 11
0.4064
 21
-0.0254
 31
0.0
 12
-0.4064
 22
0.0254
 32
0.0
 13
0.4064
 23
0.0254
 33
0.0
  0
ENDBLK
  5
34D
  330
9B
  100
AcDbEntity
  100
AcDbBlockEnd
  0
BLOCK
  5
34E
  330
163
  100
AcDbEntity
  100
AcDbBlockBegin
  8
0
  2
D171RECTANGLE0_254X0_0508
 70
     0
 10
0.0
 20
0.0
 30
0.0
  0
SOLID
  5
34F
  330
9C
  100
AcDbEntity
  100
AcDbTrace
  8
0
 10
-0.127
 20
-0.0254
 30
0.0
 11
0.127
 21
-0.0254
 31
0.0
 12
-0.127
 22
0.0254
 32
0.0
 13
0.127
 23
0.0254
 33
0.0
  0
ENDBLK
  5
350
  330
9C
  100
AcDbEntity
  100
AcDbBlockEnd
  0
BLOCK
  5
351
  330
163
  100
AcDbEntity
  100
AcDbBlockBegin
  8
0
  2
D172RECTANGLE0_381X0_0508
 70
     0
 10
0.0
 20
0.0
 30
0.0
  0
SOLID
  5
352
  330
9D
  100
AcDbEntity
  100
AcDbTrace
  8
0
 10
-0.1905
 20
-0.0254
 30
0.0
 11
0.1905
 21
-0.0254
 31
0.0
 12
-0.1905
 22
0.0254
 32
0.0
 13
0.1905
 23
0.0254
 33
0.0
  0
ENDBLK
  5
353
  330
9D
  100
AcDbEntity
  100
AcDbBlockEnd
  0
BLOCK
  5
354
  330
163
  100
AcDbEntity
  100
AcDbBlockBegin
  8
0
  2
D173RECTANGLE0_3556X0_1016
 70
     0
 10
0.0
 20
0.0
 30
0.0
  0
SOLID
  5
355
  330
9E
  100
AcDbEntity
  100
AcDbTrace
  8
0
 10
-0.1778
 20
-0.0508
 30
0.0
 11
0.1778
 21
-0.0508
 31
0.0
 12
-0.1778
 22
0.0508
 32
0.0
 13
0.1778
 23
0.0508
 33
0.0
  0
ENDBLK
  5
356
  330
9E
  100
AcDbEntity
  100
AcDbBlockEnd
  0
BLOCK
  5
357
  330
163
  100
AcDbEntity
  100
AcDbBlockBegin
  8
0
  2
D174RECTANGLE0_635X0_1016
 70
     0
 10
0.0
 20
0.0
 30
0.0
  0
SOLID
  5
358
  330
9F
  100
AcDbEntity
  100
AcDbTrace
  8
0
 10
-0.3175
 20
-0.0508
 30
0.0
 11
0.3175
 21
-0.0508
 31
0.0
 12
-0.3175
 22
0.0508
 32
0.0
 13
0.3175
 23
0.0508
 33
0.0
  0
ENDBLK
  5
359
  330
9F
  100
AcDbEntity
  100
AcDbBlockEnd
  0
BLOCK
  5
35A
  330
163
  100
AcDbEntity
  100
AcDbBlockBegin
  8
0
  2
D175RECTANGLE0_8636X0_1016
 70
     0
 10
0.0
 20
0.0
 30
0.0
  0
SOLID
  5
35B
  330
A0
  100
AcDbEntity
  100
AcDbTrace
  8
0
 10
-0.4318
 20
-0.0508
 30
0.0
 11
0.4318
 21
-0.0508
 31
0.0
 12
-0.4318
 22
0.0508
 32
0.0
 13
0.4318
 23
0.0508
 33
0.0
  0
ENDBLK
  5
35C
  330
A0
  100
AcDbEntity
  100
AcDbBlockEnd
  0
BLOCK
  5
35D
  330
163
  100
AcDbEntity
  100
AcDbBlockBegin
  8
0
  2
D176RECTANGLE1_5748X0_0508
 70
     0
 10
0.0
 20
0.0
 30
0.0
  0
SOLID
  5
35E
  330
A1
  100
AcDbEntity
  100
AcDbTrace
  8
0
 10
-0.7874
 20
-0.0254
 30
0.0
 11
0.7874
 21
-0.0254
 31
0.0
 12
-0.7874
 22
0.0254
 32
0.0
 13
0.7874
 23
0.0254
 33
0.0
  0
ENDBLK
  5
35F
  330
A1
  100
AcDbEntity
  100
AcDbBlockEnd
  0
BLOCK
  5
360
  330
163
  100
AcDbEntity
  100
AcDbBlockBegin
  8
0
  2
D177RECTANGLE1_0922X0_0762
 70
     0
 10
0.0
 20
0.0
 30
0.0
  0
SOLID
  5
361
  330
A2
  100
AcDbEntity
  100
AcDbTrace
  8
0
 10
-0.5461
 20
-0.0381
 30
0.0
 11
0.5461
 21
-0.0381
 31
0.0
 12
-0.5461
 22
0.0381
 32
0.0
 13
0.5461
 23
0.0381
 33
0.0
  0
ENDBLK
  5
362
  330
A2
  100
AcDbEntity
  100
AcDbBlockEnd
  0
BLOCK
  5
363
  330
163
  100
AcDbEntity
  100
AcDbBlockBegin
  8
0
  2
D178RECTANGLE1_9558X0_0254
 70
     0
 10
0.0
 20
0.0
 30
0.0
  0
SOLID
  5
364
  330
A3
  100
AcDbEntity
  100
AcDbTrace
  8
0
 10
-0.977900
 20
-0.0127
 30
0.0
 11
0.977900
 21
-0.0127
 31
0.0
 12
-0.977900
 22
0.0127
 32
0.0
 13
0.977900
 23
0.0127
 33
0.0
  0
ENDBLK
  5
365
  330
A3
  100
AcDbEntity
  100
AcDbBlockEnd
  0
BLOCK
  5
366
  330
163
  100
AcDbEntity
  100
AcDbBlockBegin
  8
0
  2
D179RECTANGLE1_397X0_0254
 70
     0
 10
0.0
 20
0.0
 30
0.0
  0
SOLID
  5
367
  330
A4
  100
AcDbEntity
  100
AcDbTrace
  8
0
 10
-0.6985
 20
-0.0127
 30
0.0
 11
0.6985
 21
-0.0127
 31
0.0
 12
-0.6985
 22
0.0127
 32
0.0
 13
0.6985
 23
0.0127
 33
0.0
  0
ENDBLK
  5
368
  330
A4
  100
AcDbEntity
  100
AcDbBlockEnd
  0
BLOCK
  5
369
  330
163
  100
AcDbEntity
  100
AcDbBlockBegin
  8
0
  2
D180RECTANGLE0_2794X0_0508
 70
     0
 10
0.0
 20
0.0
 30
0.0
  0
SOLID
  5
36A
  330
A5
  100
AcDbEntity
  100
AcDbTrace
  8
0
 10
-0.1397
 20
-0.0254
 30
0.0
 11
0.1397
 21
-0.0254
 31
0.0
 12
-0.1397
 22
0.0254
 32
0.0
 13
0.1397
 23
0.0254
 33
0.0
  0
ENDBLK
  5
36B
  330
A5
  100
AcDbEntity
  100
AcDbBlockEnd
  0
BLOCK
  5
36C
  330
163
  100
AcDbEntity
  100
AcDbBlockBegin
  8
0
  2
D181RECTANGLE1_4986X0_1016
 70
     0
 10
0.0
 20
0.0
 30
0.0
  0
SOLID
  5
36D
  330
A6
  100
AcDbEntity
  100
AcDbTrace
  8
0
 10
-0.7493
 20
-0.0508
 30
0.0
 11
0.7493
 21
-0.0508
 31
0.0
 12
-0.7493
 22
0.0508
 32
0.0
 13
0.7493
 23
0.0508
 33
0.0
  0
ENDBLK
  5
36E
  330
A6
  100
AcDbEntity
  100
AcDbBlockEnd
  0
BLOCK
  5
36F
  330
163
  100
AcDbEntity
  100
AcDbBlockBegin
  8
0
  2
D182RECTANGLE0_6096X0_1016
 70
     0
 10
0.0
 20
0.0
 30
0.0
  0
SOLID
  5
370
  330
A7
  100
AcDbEntity
  100
AcDbTrace
  8
0
 10
-0.3048
 20
-0.0508
 30
0.0
 11
0.3048
 21
-0.0508
 31
0.0
 12
-0.3048
 22
0.0508
 32
0.0
 13
0.3048
 23
0.0508
 33
0.0
  0
ENDBLK
  5
371
  330
A7
  100
AcDbEntity
  100
AcDbBlockEnd
  0
BLOCK
  5
372
  330
163
  100
AcDbEntity
  100
AcDbBlockBegin
  8
0
  2
D183RECTANGLE2_0066X0_0254
 70
     0
 10
0.0
 20
0.0
 30
0.0
  0
SOLID
  5
373
  330
A8
  100
AcDbEntity
  100
AcDbTrace
  8
0
 10
-1.003300
 20
-0.0127
 30
0.0
 11
1.003300
 21
-0.0127
 31
0.0
 12
-1.003300
 22
0.0127
 32
0.0
 13
1.003300
 23
0.0127
 33
0.0
  0
ENDBLK
  5
374
  330
A8
  100
AcDbEntity
  100
AcDbBlockEnd
  0
BLOCK
  5
375
  330
163
  100
AcDbEntity
  100
AcDbBlockBegin
  8
0
  2
D184RECTANGLE1_0922X0_1016
 70
     0
 10
0.0
 20
0.0
 30
0.0
  0
SOLID
  5
376
  330
A9
  100
AcDbEntity
  100
AcDbTrace
  8
0
 10
-0.5461
 20
-0.0508
 30
0.0
 11
0.5461
 21
-0.0508
 31
0.0
 12
-0.5461
 22
0.0508
 32
0.0
 13
0.5461
 23
0.0508
 33
0.0
  0
ENDBLK
  5
377
  330
A9
  100
AcDbEntity
  100
AcDbBlockEnd
  0
BLOCK
  5
378
  330
163
  100
AcDbEntity
  100
AcDbBlockBegin
  8
0
  2
D185RECTANGLE0_5334X0_1016
 70
     0
 10
0.0
 20
0.0
 30
0.0
  0
SOLID
  5
379
  330
AA
  100
AcDbEntity
  100
AcDbTrace
  8
0
 10
-0.2667
 20
-0.0508
 30
0.0
 11
0.2667
 21
-0.0508
 31
0.0
 12
-0.2667
 22
0.0508
 32
0.0
 13
0.2667
 23
0.0508
 33
0.0
  0
ENDBLK
  5
37A
  330
AA
  100
AcDbEntity
  100
AcDbBlockEnd
  0
BLOCK
  5
37B
  330
163
  100
AcDbEntity
  100
AcDbBlockBegin
  8
0
  2
D186RECTANGLE0_2032X0_127
 70
     0
 10
0.0
 20
0.0
 30
0.0
  0
SOLID
  5
37C
  330
AB
  100
AcDbEntity
  100
AcDbTrace
  8
0
 10
-0.1016
 20
-0.0635
 30
0.0
 11
0.1016
 21
-0.0635
 31
0.0
 12
-0.1016
 22
0.0635
 32
0.0
 13
0.1016
 23
0.0635
 33
0.0
  0
ENDBLK
  5
37D
  330
AB
  100
AcDbEntity
  100
AcDbBlockEnd
  0
BLOCK
  5
37E
  330
163
  100
AcDbEntity
  100
AcDbBlockBegin
  8
0
  2
D187RECTANGLE1_0414X0_127
 70
     0
 10
0.0
 20
0.0
 30
0.0
  0
SOLID
  5
37F
  330
AC
  100
AcDbEntity
  100
AcDbTrace
  8
0
 10
-0.5207
 20
-0.0635
 30
0.0
 11
0.5207
 21
-0.0635
 31
0.0
 12
-0.5207
 22
0.0635
 32
0.0
 13
0.5207
 23
0.0635
 33
0.0
  0
ENDBLK
  5
380
  330
AC
  100
AcDbEntity
  100
AcDbBlockEnd
  0
BLOCK
  5
381
  330
163
  100
AcDbEntity
  100
AcDbBlockBegin
  8
0
  2
D188RECTANGLE0_4064X0_1016
 70
     0
 10
0.0
 20
0.0
 30
0.0
  0
SOLID
  5
382
  330
AD
  100
AcDbEntity
  100
AcDbTrace
  8
0
 10
-0.2032
 20
-0.0508
 30
0.0
 11
0.2032
 21
-0.0508
 31
0.0
 12
-0.2032
 22
0.0508
 32
0.0
 13
0.2032
 23
0.0508
 33
0.0
  0
ENDBLK
  5
383
  330
AD
  100
AcDbEntity
  100
AcDbBlockEnd
  0
BLOCK
  5
384
  330
163
  100
AcDbEntity
  100
AcDbBlockBegin
  8
0
  2
D189RECTANGLE0_5588X0_127
 70
     0
 10
0.0
 20
0.0
 30
0.0
  0
SOLID
  5
385
  330
AE
  100
AcDbEntity
  100
AcDbTrace
  8
0
 10
-0.2794
 20
-0.0635
 30
0.0
 11
0.2794
 21
-0.0635
 31
0.0
 12
-0.2794
 22
0.0635
 32
0.0
 13
0.2794
 23
0.0635
 33
0.0
  0
ENDBLK
  5
386
  330
AE
  100
AcDbEntity
  100
AcDbBlockEnd
  0
BLOCK
  5
387
  330
163
  100
AcDbEntity
  100
AcDbBlockBegin
  8
0
  2
D190RECTANGLE2_0828X0_0254
 70
     0
 10
0.0
 20
0.0
 30
0.0
  0
SOLID
  5
388
  330
AF
  100
AcDbEntity
  100
AcDbTrace
  8
0
 10
-1.0414
 20
-0.0127
 30
0.0
 11
1.0414
 21
-0.0127
 31
0.0
 12
-1.0414
 22
0.0127
 32
0.0
 13
1.0414
 23
0.0127
 33
0.0
  0
ENDBLK
  5
389
  330
AF
  100
AcDbEntity
  100
AcDbBlockEnd
  0
BLOCK
  5
38A
  330
163
  100
AcDbEntity
  100
AcDbBlockBegin
  8
0
  2
D191RECTANGLE0_8382X0_127
 70
     0
 10
0.0
 20
0.0
 30
0.0
  0
SOLID
  5
38B
  330
B0
  100
AcDbEntity
  100
AcDbTrace
  8
0
 10
-0.4191
 20
-0.0635
 30
0.0
 11
0.4191
 21
-0.0635
 31
0.0
 12
-0.4191
 22
0.0635
 32
0.0
 13
0.4191
 23
0.0635
 33
0.0
  0
ENDBLK
  5
38C
  330
B0
  100
AcDbEntity
  100
AcDbBlockEnd
  0
BLOCK
  5
38D
  330
163
  100
AcDbEntity
  100
AcDbBlockBegin
  8
0
  2
D192RECTANGLE0_3556X0_0762
 70
     0
 10
0.0
 20
0.0
 30
0.0
  0
SOLID
  5
38E
  330
B1
  100
AcDbEntity
  100
AcDbTrace
  8
0
 10
-0.1778
 20
-0.0381
 30
0.0
 11
0.1778
 21
-0.0381
 31
0.0
 12
-0.1778
 22
0.0381
 32
0.0
 13
0.1778
 23
0.0381
 33
0.0
  0
ENDBLK
  5
38F
  330
B1
  100
AcDbEntity
  100
AcDbBlockEnd
  0
BLOCK
  5
390
  330
163
  100
AcDbEntity
  100
AcDbBlockBegin
  8
0
  2
D193RECTANGLE1_0668X0_0508
 70
     0
 10
0.0
 20
0.0
 30
0.0
  0
SOLID
  5
391
  330
B2
  100
AcDbEntity
  100
AcDbTrace
  8
0
 10
-0.5334
 20
-0.0254
 30
0.0
 11
0.5334
 21
-0.0254
 31
0.0
 12
-0.5334
 22
0.0254
 32
0.0
 13
0.5334
 23
0.0254
 33
0.0
  0
ENDBLK
  5
392
  330
B2
  100
AcDbEntity
  100
AcDbBlockEnd
  0
BLOCK
  5
393
  330
163
  100
AcDbEntity
  100
AcDbBlockBegin
  8
0
  2
D194RECTANGLE0_2794X0_1016
 70
     0
 10
0.0
 20
0.0
 30
0.0
  0
SOLID
  5
394
  330
B3
  100
AcDbEntity
  100
AcDbTrace
  8
0
 10
-0.1397
 20
-0.0508
 30
0.0
 11
0.1397
 21
-0.0508
 31
0.0
 12
-0.1397
 22
0.0508
 32
0.0
 13
0.1397
 23
0.0508
 33
0.0
  0
ENDBLK
  5
395
  330
B3
  100
AcDbEntity
  100
AcDbBlockEnd
  0
BLOCK
  5
396
  330
163
  100
AcDbEntity
  100
AcDbBlockBegin
  8
0
  2
D195RECTANGLE1_4732X0_1016
 70
     0
 10
0.0
 20
0.0
 30
0.0
  0
SOLID
  5
397
  330
B4
  100
AcDbEntity
  100
AcDbTrace
  8
0
 10
-0.736600
 20
-0.0508
 30
0.0
 11
0.736600
 21
-0.0508
 31
0.0
 12
-0.736600
 22
0.0508
 32
0.0
 13
0.736600
 23
0.0508
 33
0.0
  0
ENDBLK
  5
398
  330
B4
  100
AcDbEntity
  100
AcDbBlockEnd
  0
BLOCK
  5
399
  330
163
  100
AcDbEntity
  100
AcDbBlockBegin
  8
0
  2
D196RECTANGLE2_1082X0_0254
 70
     0
 10
0.0
 20
0.0
 30
0.0
  0
SOLID
  5
39A
  330
B5
  100
AcDbEntity
  100
AcDbTrace
  8
0
 10
-1.0541
 20
-0.0127
 30
0.0
 11
1.0541
 21
-0.0127
 31
0.0
 12
-1.0541
 22
0.0127
 32
0.0
 13
1.0541
 23
0.0127
 33
0.0
  0
ENDBLK
  5
39B
  330
B5
  100
AcDbEntity
  100
AcDbBlockEnd
  0
BLOCK
  5
39C
  330
163
  100
AcDbEntity
  100
AcDbBlockBegin
  8
0
  2
D197RECTANGLE0_4064X0_2286
 70
     0
 10
0.0
 20
0.0
 30
0.0
  0
SOLID
  5
39D
  330
B6
  100
AcDbEntity
  100
AcDbTrace
  8
0
 10
-0.2032
 20
-0.1143
 30
0.0
 11
0.2032
 21
-0.1143
 31
0.0
 12
-0.2032
 22
0.1143
 32
0.0
 13
0.2032
 23
0.1143
 33
0.0
  0
ENDBLK
  5
39E
  330
B6
  100
AcDbEntity
  100
AcDbBlockEnd
  0
BLOCK
  5
39F
  330
163
  100
AcDbEntity
  100
AcDbBlockBegin
  8
0
  2
D198RECTANGLE0_5842X0_1016
 70
     0
 10
0.0
 20
0.0
 30
0.0
  0
SOLID
  5
3A0
  330
B7
  100
AcDbEntity
  100
AcDbTrace
  8
0
 10
-0.2921
 20
-0.0508
 30
0.0
 11
0.2921
 21
-0.0508
 31
0.0
 12
-0.2921
 22
0.0508
 32
0.0
 13
0.2921
 23
0.0508
 33
0.0
  0
ENDBLK
  5
3A1
  330
B7
  100
AcDbEntity
  100
AcDbBlockEnd
  0
BLOCK
  5
3A2
  330
163
  100
AcDbEntity
  100
AcDbBlockBegin
  8
0
  2
D199RECTANGLE0_3556X0_4318
 70
     0
 10
0.0
 20
0.0
 30
0.0
  0
SOLID
  5
3A3
  330
B8
  100
AcDbEntity
  100
AcDbTrace
  8
0
 10
-0.1778
 20
-0.2159
 30
0.0
 11
0.1778
 21
-0.2159
 31
0.0
 12
-0.1778
 22
0.2159
 32
0.0
 13
0.1778
 23
0.2159
 33
0.0
  0
ENDBLK
  5
3A4
  330
B8
  100
AcDbEntity
  100
AcDbBlockEnd
  0
BLOCK
  5
3A5
  330
163
  100
AcDbEntity
  100
AcDbBlockBegin
  8
0
  2
D200RECTANGLE0_4318X0_1778
 70
     0
 10
0.0
 20
0.0
 30
0.0
  0
SOLID
  5
3A6
  330
B9
  100
AcDbEntity
  100
AcDbTrace
  8
0
 10
-0.2159
 20
-0.0889
 30
0.0
 11
0.2159
 21
-0.0889
 31
0.0
 12
-0.2159
 22
0.0889
 32
0.0
 13
0.2159
 23
0.0889
 33
0.0
  0
ENDBLK
  5
3A7
  330
B9
  100
AcDbEntity
  100
AcDbBlockEnd
  0
BLOCK
  5
3A8
  330
163
  100
AcDbEntity
  100
AcDbBlockBegin
  8
0
  2
D201RECTANGLE0_5588X0_0508
 70
     0
 10
0.0
 20
0.0
 30
0.0
  0
SOLID
  5
3A9
  330
BA
  100
AcDbEntity
  100
AcDbTrace
  8
0
 10
-0.2794
 20
-0.0254
 30
0.0
 11
0.2794
 21
-0.0254
 31
0.0
 12
-0.2794
 22
0.0254
 32
0.0
 13
0.2794
 23
0.0254
 33
0.0
  0
ENDBLK
  5
3AA
  330
BA
  100
AcDbEntity
  100
AcDbBlockEnd
  0
BLOCK
  5
3AB
  330
163
  100
AcDbEntity
  100
AcDbBlockBegin
  8
0
  2
D202RECTANGLE2_1336X0_0254
 70
     0
 10
0.0
 20
0.0
 30
0.0
  0
SOLID
  5
3AC
  330
BB
  100
AcDbEntity
  100
AcDbTrace
  8
0
 10
-1.0668
 20
-0.0127
 30
0.0
 11
1.0668
 21
-0.0127
 31
0.0
 12
-1.0668
 22
0.0127
 32
0.0
 13
1.0668
 23
0.0127
 33
0.0
  0
ENDBLK
  5
3AD
  330
BB
  100
AcDbEntity
  100
AcDbBlockEnd
  0
BLOCK
  5
3AE
  330
163
  100
AcDbEntity
  100
AcDbBlockBegin
  8
0
  2
D203RECTANGLE0_635X0_0762
 70
     0
 10
0.0
 20
0.0
 30
0.0
  0
SOLID
  5
3AF
  330
BC
  100
AcDbEntity
  100
AcDbTrace
  8
0
 10
-0.3175
 20
-0.0381
 30
0.0
 11
0.3175
 21
-0.0381
 31
0.0
 12
-0.3175
 22
0.0381
 32
0.0
 13
0.3175
 23
0.0381
 33
0.0
  0
ENDBLK
  5
3B0
  330
BC
  100
AcDbEntity
  100
AcDbBlockEnd
  0
BLOCK
  5
3B1
  330
163
  100
AcDbEntity
  100
AcDbBlockBegin
  8
0
  2
D204RECTANGLE1_2954X0_0254
 70
     0
 10
0.0
 20
0.0
 30
0.0
  0
SOLID
  5
3B2
  330
BD
  100
AcDbEntity
  100
AcDbTrace
  8
0
 10
-0.6477
 20
-0.0127
 30
0.0
 11
0.6477
 21
-0.0127
 31
0.0
 12
-0.6477
 22
0.0127
 32
0.0
 13
0.6477
 23
0.0127
 33
0.0
  0
ENDBLK
  5
3B3
  330
BD
  100
AcDbEntity
  100
AcDbBlockEnd
  0
BLOCK
  5
3B4
  330
163
  100
AcDbEntity
  100
AcDbBlockBegin
  8
0
  2
D205RECTANGLE0_4064X0_0762
 70
     0
 10
0.0
 20
0.0
 30
0.0
  0
SOLID
  5
3B5
  330
BE
  100
AcDbEntity
  100
AcDbTrace
  8
0
 10
-0.2032
 20
-0.0381
 30
0.0
 11
0.2032
 21
-0.0381
 31
0.0
 12
-0.2032
 22
0.0381
 32
0.0
 13
0.2032
 23
0.0381
 33
0.0
  0
ENDBLK
  5
3B6
  330
BE
  100
AcDbEntity
  100
AcDbBlockEnd
  0
BLOCK
  5
3B7
  330
163
  100
AcDbEntity
  100
AcDbBlockBegin
  8
0
  2
D206RECTANGLE0_508X0_127
 70
     0
 10
0.0
 20
0.0
 30
0.0
  0
SOLID
  5
3B8
  330
BF
  100
AcDbEntity
  100
AcDbTrace
  8
0
 10
-0.254
 20
-0.0635
 30
0.0
 11
0.254
 21
-0.0635
 31
0.0
 12
-0.254
 22
0.0635
 32
0.0
 13
0.254
 23
0.0635
 33
0.0
  0
ENDBLK
  5
3B9
  330
BF
  100
AcDbEntity
  100
AcDbBlockEnd
  0
BLOCK
  5
3BA
  330
163
  100
AcDbEntity
  100
AcDbBlockBegin
  8
0
  2
D207RECTANGLE0_3048X0_0508
 70
     0
 10
0.0
 20
0.0
 30
0.0
  0
SOLID
  5
3BB
  330
C0
  100
AcDbEntity
  100
AcDbTrace
  8
0
 10
-0.1524
 20
-0.0254
 30
0.0
 11
0.1524
 21
-0.0254
 31
0.0
 12
-0.1524
 22
0.0254
 32
0.0
 13
0.1524
 23
0.0254
 33
0.0
  0
ENDBLK
  5
3BC
  330
C0
  100
AcDbEntity
  100
AcDbBlockEnd
  0
BLOCK
  5
3BD
  330
163
  100
AcDbEntity
  100
AcDbBlockBegin
  8
0
  2
D208RECTANGLE1_0922X0_0508
 70
     0
 10
0.0
 20
0.0
 30
0.0
  0
SOLID
  5
3BE
  330
C1
  100
AcDbEntity
  100
AcDbTrace
  8
0
 10
-0.5461
 20
-0.0254
 30
0.0
 11
0.5461
 21
-0.0254
 31
0.0
 12
-0.5461
 22
0.0254
 32
0.0
 13
0.5461
 23
0.0254
 33
0.0
  0
ENDBLK
  5
3BF
  330
C1
  100
AcDbEntity
  100
AcDbBlockEnd
  0
BLOCK
  5
3C0
  330
163
  100
AcDbEntity
  100
AcDbBlockBegin
  8
0
  2
D209RECTANGLE0_2032X0_1016
 70
     0
 10
0.0
 20
0.0
 30
0.0
  0
SOLID
  5
3C1
  330
C2
  100
AcDbEntity
  100
AcDbTrace
  8
0
 10
-0.1016
 20
-0.0508
 30
0.0
 11
0.1016
 21
-0.0508
 31
0.0
 12
-0.1016
 22
0.0508
 32
0.0
 13
0.1016
 23
0.0508
 33
0.0
  0
ENDBLK
  5
3C2
  330
C2
  100
AcDbEntity
  100
AcDbBlockEnd
  0
BLOCK
  5
3C3
  330
163
  100
AcDbEntity
  100
AcDbBlockBegin
  8
0
  2
D210RECTANGLE0_5842X0_0508
 70
     0
 10
0.0
 20
0.0
 30
0.0
  0
SOLID
  5
3C4
  330
C3
  100
AcDbEntity
  100
AcDbTrace
  8
0
 10
-0.2921
 20
-0.0254
 30
0.0
 11
0.2921
 21
-0.0254
 31
0.0
 12
-0.2921
 22
0.0254
 32
0.0
 13
0.2921
 23
0.0254
 33
0.0
  0
ENDBLK
  5
3C5
  330
C3
  100
AcDbEntity
  100
AcDbBlockEnd
  0
BLOCK
  5
3C6
  330
163
  100
AcDbEntity
  100
AcDbBlockBegin
  8
0
  2
D211RECTANGLE1_4986X0_0762
 70
     0
 10
0.0
 20
0.0
 30
0.0
  0
SOLID
  5
3C7
  330
C4
  100
AcDbEntity
  100
AcDbTrace
  8
0
 10
-0.7493
 20
-0.0381
 30
0.0
 11
0.7493
 21
-0.0381
 31
0.0
 12
-0.7493
 22
0.0381
 32
0.0
 13
0.7493
 23
0.0381
 33
0.0
  0
ENDBLK
  5
3C8
  330
C4
  100
AcDbEntity
  100
AcDbBlockEnd
  0
BLOCK
  5
3C9
  330
163
  100
AcDbEntity
  100
AcDbBlockBegin
  8
0
  2
D212RECTANGLE0_3302X0_0508
 70
     0
 10
0.0
 20
0.0
 30
0.0
  0
SOLID
  5
3CA
  330
C5
  100
AcDbEntity
  100
AcDbTrace
  8
0
 10
-0.1651
 20
-0.0254
 30
0.0
 11
0.1651
 21
-0.0254
 31
0.0
 12
-0.1651
 22
0.0254
 32
0.0
 13
0.1651
 23
0.0254
 33
0.0
  0
ENDBLK
  5
3CB
  330
C5
  100
AcDbEntity
  100
AcDbBlockEnd
  0
BLOCK
  5
3CC
  330
163
  100
AcDbEntity
  100
AcDbBlockBegin
  8
0
  2
D213RECTANGLE0_3302X0_0762
 70
     0
 10
0.0
 20
0.0
 30
0.0
  0
SOLID
  5
3CD
  330
C6
  100
AcDbEntity
  100
AcDbTrace
  8
0
 10
-0.1651
 20
-0.0381
 30
0.0
 11
0.1651
 21
-0.0381
 31
0.0
 12
-0.1651
 22
0.0381
 32
0.0
 13
0.1651
 23
0.0381
 33
0.0
  0
ENDBLK
  5
3CE
  330
C6
  100
AcDbEntity
  100
AcDbBlockEnd
  0
BLOCK
  5
3CF
  330
163
  100
AcDbEntity
  100
AcDbBlockBegin
  8
0
  2
D214RECTANGLE1_3208X0_0508
 70
     0
 10
0.0
 20
0.0
 30
0.0
  0
SOLID
  5
3D0
  330
C7
  100
AcDbEntity
  100
AcDbTrace
  8
0
 10
-0.6604
 20
-0.0254
 30
0.0
 11
0.6604
 21
-0.0254
 31
0.0
 12
-0.6604
 22
0.0254
 32
0.0
 13
0.6604
 23
0.0254
 33
0.0
  0
ENDBLK
  5
3D1
  330
C7
  100
AcDbEntity
  100
AcDbBlockEnd
  0
BLOCK
  5
3D2
  330
163
  100
AcDbEntity
  100
AcDbBlockBegin
  8
0
  2
D215RECTANGLE0_254X0_1016
 70
     0
 10
0.0
 20
0.0
 30
0.0
  0
SOLID
  5
3D3
  330
C8
  100
AcDbEntity
  100
AcDbTrace
  8
0
 10
-0.127
 20
-0.0508
 30
0.0
 11
0.127
 21
-0.0508
 31
0.0
 12
-0.127
 22
0.0508
 32
0.0
 13
0.127
 23
0.0508
 33
0.0
  0
ENDBLK
  5
3D4
  330
C8
  100
AcDbEntity
  100
AcDbBlockEnd
  0
BLOCK
  5
3D5
  330
163
  100
AcDbEntity
  100
AcDbBlockBegin
  8
0
  2
D216RECTANGLE2_2352X0_0254
 70
     0
 10
0.0
 20
0.0
 30
0.0
  0
SOLID
  5
3D6
  330
C9
  100
AcDbEntity
  100
AcDbTrace
  8
0
 10
-1.1176
 20
-0.0127
 30
0.0
 11
1.1176
 21
-0.0127
 31
0.0
 12
-1.1176
 22
0.0127
 32
0.0
 13
1.1176
 23
0.0127
 33
0.0
  0
ENDBLK
  5
3D7
  330
C9
  100
AcDbEntity
  100
AcDbBlockEnd
  0
BLOCK
  5
3D8
  330
163
  100
AcDbEntity
  100
AcDbBlockBegin
  8
0
  2
D217RECTANGLE0_5334X0_0762
 70
     0
 10
0.0
 20
0.0
 30
0.0
  0
SOLID
  5
3D9
  330
CA
  100
AcDbEntity
  100
AcDbTrace
  8
0
 10
-0.2667
 20
-0.0381
 30
0.0
 11
0.2667
 21
-0.0381
 31
0.0
 12
-0.2667
 22
0.0381
 32
0.0
 13
0.2667
 23
0.0381
 33
0.0
  0
ENDBLK
  5
3DA
  330
CA
  100
AcDbEntity
  100
AcDbBlockEnd
  0
BLOCK
  5
3DB
  330
163
  100
AcDbEntity
  100
AcDbBlockBegin
  8
0
  2
D218RECTANGLE0_5842X0_1524
 70
     0
 10
0.0
 20
0.0
 30
0.0
  0
SOLID
  5
3DC
  330
CB
  100
AcDbEntity
  100
AcDbTrace
  8
0
 10
-0.2921
 20
-0.0762
 30
0.0
 11
0.2921
 21
-0.0762
 31
0.0
 12
-0.2921
 22
0.0762
 32
0.0
 13
0.2921
 23
0.0762
 33
0.0
  0
ENDBLK
  5
3DD
  330
CB
  100
AcDbEntity
  100
AcDbBlockEnd
  0
BLOCK
  5
3DE
  330
163
  100
AcDbEntity
  100
AcDbBlockBegin
  8
0
  2
D219RECTANGLE0_6096X0_2032
 70
     0
 10
0.0
 20
0.0
 30
0.0
  0
SOLID
  5
3DF
  330
CC
  100
AcDbEntity
  100
AcDbTrace
  8
0
 10
-0.3048
 20
-0.1016
 30
0.0
 11
0.3048
 21
-0.1016
 31
0.0
 12
-0.3048
 22
0.1016
 32
0.0
 13
0.3048
 23
0.1016
 33
0.0
  0
ENDBLK
  5
3E0
  330
CC
  100
AcDbEntity
  100
AcDbBlockEnd
  0
BLOCK
  5
3E1
  330
163
  100
AcDbEntity
  100
AcDbBlockBegin
  8
0
  2
D220RECTANGLE2_2606X0_0254
 70
     0
 10
0.0
 20
0.0
 30
0.0
  0
SOLID
  5
3E2
  330
CD
  100
AcDbEntity
  100
AcDbTrace
  8
0
 10
-1.1303
 20
-0.0127
 30
0.0
 11
1.1303
 21
-0.0127
 31
0.0
 12
-1.1303
 22
0.0127
 32
0.0
 13
1.1303
 23
0.0127
 33
0.0
  0
ENDBLK
  5
3E3
  330
CD
  100
AcDbEntity
  100
AcDbBlockEnd
  0
BLOCK
  5
3E4
  330
163
  100
AcDbEntity
  100
AcDbBlockBegin
  8
0
  2
D221RECTANGLE0_6858X0_0762
 70
     0
 10
0.0
 20
0.0
 30
0.0
  0
SOLID
  5
3E5
  330
CE
  100
AcDbEntity
  100
AcDbTrace
  8
0
 10
-0.3429
 20
-0.0381
 30
0.0
 11
0.3429
 21
-0.0381
 31
0.0
 12
-0.3429
 22
0.0381
 32
0.0
 13
0.3429
 23
0.0381
 33
0.0
  0
ENDBLK
  5
3E6
  330
CE
  100
AcDbEntity
  100
AcDbBlockEnd
  0
BLOCK
  5
3E7
  330
163
  100
AcDbEntity
  100
AcDbBlockBegin
  8
0
  2
D222RECTANGLE1_5494X0_2286
 70
     0
 10
0.0
 20
0.0
 30
0.0
  0
SOLID
  5
3E8
  330
CF
  100
AcDbEntity
  100
AcDbTrace
  8
0
 10
-0.774700
 20
-0.1143
 30
0.0
 11
0.774700
 21
-0.1143
 31
0.0
 12
-0.774700
 22
0.1143
 32
0.0
 13
0.774700
 23
0.1143
 33
0.0
  0
ENDBLK
  5
3E9
  330
CF
  100
AcDbEntity
  100
AcDbBlockEnd
  0
BLOCK
  5
3EA
  330
163
  100
AcDbEntity
  100
AcDbBlockBegin
  8
0
  2
D223RECTANGLE2_286X0_0254
 70
     0
 10
0.0
 20
0.0
 30
0.0
  0
SOLID
  5
3EB
  330
D0
  100
AcDbEntity
  100
AcDbTrace
  8
0
 10
-1.143
 20
-0.0127
 30
0.0
 11
1.143
 21
-0.0127
 31
0.0
 12
-1.143
 22
0.0127
 32
0.0
 13
1.143
 23
0.0127
 33
0.0
  0
ENDBLK
  5
3EC
  330
D0
  100
AcDbEntity
  100
AcDbBlockEnd
  0
BLOCK
  5
3ED
  330
163
  100
AcDbEntity
  100
AcDbBlockBegin
  8
0
  2
D224RECTANGLE0_9398X0_0508
 70
     0
 10
0.0
 20
0.0
 30
0.0
  0
SOLID
  5
3EE
  330
D1
  100
AcDbEntity
  100
AcDbTrace
  8
0
 10
-0.4699
 20
-0.0254
 30
0.0
 11
0.4699
 21
-0.0254
 31
0.0
 12
-0.4699
 22
0.0254
 32
0.0
 13
0.4699
 23
0.0254
 33
0.0
  0
ENDBLK
  5
3EF
  330
D1
  100
AcDbEntity
  100
AcDbBlockEnd
  0
BLOCK
  5
3F0
  330
163
  100
AcDbEntity
  100
AcDbBlockBegin
  8
0
  2
D225RECTANGLE0_4064X0_3048
 70
     0
 10
0.0
 20
0.0
 30
0.0
  0
SOLID
  5
3F1
  330
D2
  100
AcDbEntity
  100
AcDbTrace
  8
0
 10
-0.2032
 20
-0.1524
 30
0.0
 11
0.2032
 21
-0.1524
 31
0.0
 12
-0.2032
 22
0.1524
 32
0.0
 13
0.2032
 23
0.1524
 33
0.0
  0
ENDBLK
  5
3F2
  330
D2
  100
AcDbEntity
  100
AcDbBlockEnd
  0
BLOCK
  5
3F3
  330
163
  100
AcDbEntity
  100
AcDbBlockBegin
  8
0
  2
D226RECTANGLE2_3114X0_0254
 70
     0
 10
0.0
 20
0.0
 30
0.0
  0
SOLID
  5
3F4
  330
D3
  100
AcDbEntity
  100
AcDbTrace
  8
0
 10
-1.155700
 20
-0.0127
 30
0.0
 11
1.155700
 21
-0.0127
 31
0.0
 12
-1.155700
 22
0.0127
 32
0.0
 13
1.155700
 23
0.0127
 33
0.0
  0
ENDBLK
  5
3F5
  330
D3
  100
AcDbEntity
  100
AcDbBlockEnd
  0
BLOCK
  5
3F6
  330
163
  100
AcDbEntity
  100
AcDbBlockBegin
  8
0
  2
D227RECTANGLE2_0574X0_5842
 70
     0
 10
0.0
 20
0.0
 30
0.0
  0
SOLID
  5
3F7
  330
D4
  100
AcDbEntity
  100
AcDbTrace
  8
0
 10
-1.028700
 20
-0.2921
 30
0.0
 11
1.028700
 21
-0.2921
 31
0.0
 12
-1.028700
 22
0.2921
 32
0.0
 13
1.028700
 23
0.2921
 33
0.0
  0
ENDBLK
  5
3F8
  330
D4
  100
AcDbEntity
  100
AcDbBlockEnd
  0
BLOCK
  5
3F9
  330
163
  100
AcDbEntity
  100
AcDbBlockBegin
  8
0
  2
D228RECTANGLE1_143X0_1016
 70
     0
 10
0.0
 20
0.0
 30
0.0
  0
SOLID
  5
3FA
  330
D5
  100
AcDbEntity
  100
AcDbTrace
  8
0
 10
-0.5715
 20
-0.0508
 30
0.0
 11
0.5715
 21
-0.0508
 31
0.0
 12
-0.5715
 22
0.0508
 32
0.0
 13
0.5715
 23
0.0508
 33
0.0
  0
ENDBLK
  5
3FB
  330
D5
  100
AcDbEntity
  100
AcDbBlockEnd
  0
BLOCK
  5
3FC
  330
163
  100
AcDbEntity
  100
AcDbBlockBegin
  8
0
  2
D229RECTANGLE0_8636X0_635
 70
     0
 10
0.0
 20
0.0
 30
0.0
  0
SOLID
  5
3FD
  330
D6
  100
AcDbEntity
  100
AcDbTrace
  8
0
 10
-0.4318
 20
-0.3175
 30
0.0
 11
0.4318
 21
-0.3175
 31
0.0
 12
-0.4318
 22
0.3175
 32
0.0
 13
0.4318
 23
0.3175
 33
0.0
  0
ENDBLK
  5
3FE
  330
D6
  100
AcDbEntity
  100
AcDbBlockEnd
  0
BLOCK
  5
3FF
  330
163
  100
AcDbEntity
  100
AcDbBlockBegin
  8
0
  2
D230RECTANGLE0_6604X0_635
 70
     0
 10
0.0
 20
0.0
 30
0.0
  0
SOLID
  5
400
  330
D7
  100
AcDbEntity
  100
AcDbTrace
  8
0
 10
-0.3302
 20
-0.3175
 30
0.0
 11
0.3302
 21
-0.3175
 31
0.0
 12
-0.3302
 22
0.3175
 32
0.0
 13
0.3302
 23
0.3175
 33
0.0
  0
ENDBLK
  5
401
  330
D7
  100
AcDbEntity
  100
AcDbBlockEnd
  0
BLOCK
  5
402
  330
163
  100
AcDbEntity
  100
AcDbBlockBegin
  8
0
  2
D231RECTANGLE0_1524X0_0508
 70
     0
 10
0.0
 20
0.0
 30
0.0
  0
SOLID
  5
403
  330
D8
  100
AcDbEntity
  100
AcDbTrace
  8
0
 10
-0.0762
 20
-0.0254
 30
0.0
 11
0.0762
 21
-0.0254
 31
0.0
 12
-0.0762
 22
0.0254
 32
0.0
 13
0.0762
 23
0.0254
 33
0.0
  0
ENDBLK
  5
404
  330
D8
  100
AcDbEntity
  100
AcDbBlockEnd
  0
BLOCK
  5
405
  330
163
  100
AcDbEntity
  100
AcDbBlockBegin
  8
0
  2
D232RECTANGLE1_5748X0_0762
 70
     0
 10
0.0
 20
0.0
 30
0.0
  0
SOLID
  5
406
  330
D9
  100
AcDbEntity
  100
AcDbTrace
  8
0
 10
-0.7874
 20
-0.0381
 30
0.0
 11
0.7874
 21
-0.0381
 31
0.0
 12
-0.7874
 22
0.0381
 32
0.0
 13
0.7874
 23
0.0381
 33
0.0
  0
ENDBLK
  5
407
  330
D9
  100
AcDbEntity
  100
AcDbBlockEnd
  0
BLOCK
  5
408
  330
163
  100
AcDbEntity
  100
AcDbBlockBegin
  8
0
  2
D233RECTANGLE1_6002X0_0254
 70
     0
 10
0.0
 20
0.0
 30
0.0
  0
SOLID
  5
409
  330
DA
  100
AcDbEntity
  100
AcDbTrace
  8
0
 10
-0.800100
 20
-0.0127
 30
0.0
 11
0.800100
 21
-0.0127
 31
0.0
 12
-0.800100
 22
0.0127
 32
0.0
 13
0.800100
 23
0.0127
 33
0.0
  0
ENDBLK
  5
40A
  330
DA
  100
AcDbEntity
  100
AcDbBlockEnd
  0
BLOCK
  5
40B
  330
163
  100
AcDbEntity
  100
AcDbBlockBegin
  8
0
  2
D234RECTANGLE0_6096X0_0762
 70
     0
 10
0.0
 20
0.0
 30
0.0
  0
SOLID
  5
40C
  330
DB
  100
AcDbEntity
  100
AcDbTrace
  8
0
 10
-0.3048
 20
-0.0381
 30
0.0
 11
0.3048
 21
-0.0381
 31
0.0
 12
-0.3048
 22
0.0381
 32
0.0
 13
0.3048
 23
0.0381
 33
0.0
  0
ENDBLK
  5
40D
  330
DB
  100
AcDbEntity
  100
AcDbBlockEnd
  0
BLOCK
  5
40E
  330
163
  100
AcDbEntity
  100
AcDbBlockBegin
  8
0
  2
D235RECTANGLE2_4384X0_0254
 70
     0
 10
0.0
 20
0.0
 30
0.0
  0
SOLID
  5
40F
  330
DC
  100
AcDbEntity
  100
AcDbTrace
  8
0
 10
-1.2192
 20
-0.0127
 30
0.0
 11
1.2192
 21
-0.0127
 31
0.0
 12
-1.2192
 22
0.0127
 32
0.0
 13
1.2192
 23
0.0127
 33
0.0
  0
ENDBLK
  5
410
  330
DC
  100
AcDbEntity
  100
AcDbBlockEnd
  0
BLOCK
  5
411
  330
163
  100
AcDbEntity
  100
AcDbBlockBegin
  8
0
  2
D236RECTANGLE3_22579X0_0254
 70
     0
 10
0.0
 20
0.0
 30
0.0
  0
SOLID
  5
412
  330
DD
  100
AcDbEntity
  100
AcDbTrace
  8
0
 10
-1.612895
 20
-0.0127
 30
0.0
 11
1.612895
 21
-0.0127
 31
0.0
 12
-1.612895
 22
0.0127
 32
0.0
 13
1.612895
 23
0.0127
 33
0.0
  0
ENDBLK
  5
413
  330
DD
  100
AcDbEntity
  100
AcDbBlockEnd
  0
BLOCK
  5
414
  330
163
  100
AcDbEntity
  100
AcDbBlockBegin
  8
0
  2
D237RECTANGLE1_1684X0_0508
 70
     0
 10
0.0
 20
0.0
 30
0.0
  0
SOLID
  5
415
  330
DE
  100
AcDbEntity
  100
AcDbTrace
  8
0
 10
-0.5842
 20
-0.0254
 30
0.0
 11
0.5842
 21
-0.0254
 31
0.0
 12
-0.5842
 22
0.0254
 32
0.0
 13
0.5842
 23
0.0254
 33
0.0
  0
ENDBLK
  5
416
  330
DE
  100
AcDbEntity
  100
AcDbBlockEnd
  0
BLOCK
  5
417
  330
163
  100
AcDbEntity
  100
AcDbBlockBegin
  8
0
  2
D238RECTANGLE0_4064X0_1524
 70
     0
 10
0.0
 20
0.0
 30
0.0
  0
SOLID
  5
418
  330
DF
  100
AcDbEntity
  100
AcDbTrace
  8
0
 10
-0.2032
 20
-0.0762
 30
0.0
 11
0.2032
 21
-0.0762
 31
0.0
 12
-0.2032
 22
0.0762
 32
0.0
 13
0.2032
 23
0.0762
 33
0.0
  0
ENDBLK
  5
419
  330
DF
  100
AcDbEntity
  100
AcDbBlockEnd
  0
BLOCK
  5
41A
  330
163
  100
AcDbEntity
  100
AcDbBlockBegin
  8
0
  2
D239RECTANGLE5_35939X0_0254
 70
     0
 10
0.0
 20
0.0
 30
0.0
  0
SOLID
  5
41B
  330
E0
  100
AcDbEntity
  100
AcDbTrace
  8
0
 10
-2.679695
 20
-0.0127
 30
0.0
 11
2.679695
 21
-0.0127
 31
0.0
 12
-2.679695
 22
0.0127
 32
0.0
 13
2.679695
 23
0.0127
 33
0.0
  0
ENDBLK
  5
41C
  330
E0
  100
AcDbEntity
  100
AcDbBlockEnd
  0
BLOCK
  5
41D
  330
163
  100
AcDbEntity
  100
AcDbBlockBegin
  8
0
  2
D240RECTANGLE0_5588X0_1524
 70
     0
 10
0.0
 20
0.0
 30
0.0
  0
SOLID
  5
41E
  330
E1
  100
AcDbEntity
  100
AcDbTrace
  8
0
 10
-0.2794
 20
-0.0762
 30
0.0
 11
0.2794
 21
-0.0762
 31
0.0
 12
-0.2794
 22
0.0762
 32
0.0
 13
0.2794
 23
0.0762
 33
0.0
  0
ENDBLK
  5
41F
  330
E1
  100
AcDbEntity
  100
AcDbBlockEnd
  0
BLOCK
  5
420
  330
163
  100
AcDbEntity
  100
AcDbBlockBegin
  8
0
  2
D241RECTANGLE8_05178X0_0508
 70
     0
 10
0.0
 20
0.0
 30
0.0
  0
SOLID
  5
421
  330
E2
  100
AcDbEntity
  100
AcDbTrace
  8
0
 10
-4.02589
 20
-0.0254
 30
0.0
 11
4.02589
 21
-0.0254
 31
0.0
 12
-4.02589
 22
0.0254
 32
0.0
 13
4.02589
 23
0.0254
 33
0.0
  0
ENDBLK
  5
422
  330
E2
  100
AcDbEntity
  100
AcDbBlockEnd
  0
BLOCK
  5
423
  330
163
  100
AcDbEntity
  100
AcDbBlockBegin
  8
0
  2
D242RECTANGLE0_7112X0_127
 70
     0
 10
0.0
 20
0.0
 30
0.0
  0
SOLID
  5
424
  330
E3
  100
AcDbEntity
  100
AcDbTrace
  8
0
 10
-0.3556
 20
-0.0635
 30
0.0
 11
0.3556
 21
-0.0635
 31
0.0
 12
-0.3556
 22
0.0635
 32
0.0
 13
0.3556
 23
0.0635
 33
0.0
  0
ENDBLK
  5
425
  330
E3
  100
AcDbEntity
  100
AcDbBlockEnd
  0
BLOCK
  5
426
  330
163
  100
AcDbEntity
  100
AcDbBlockBegin
  8
0
  2
D243RECTANGLE1_1938X0_0508
 70
     0
 10
0.0
 20
0.0
 30
0.0
  0
SOLID
  5
427
  330
E4
  100
AcDbEntity
  100
AcDbTrace
  8
0
 10
-0.5969
 20
-0.0254
 30
0.0
 11
0.5969
 21
-0.0254
 31
0.0
 12
-0.5969
 22
0.0254
 32
0.0
 13
0.5969
 23
0.0254
 33
0.0
  0
ENDBLK
  5
428
  330
E4
  100
AcDbEntity
  100
AcDbBlockEnd
  0
BLOCK
  5
429
  330
163
  100
AcDbEntity
  100
AcDbBlockBegin
  8
0
  2
D244RECTANGLE5_33399X0_0508
 70
     0
 10
0.0
 20
0.0
 30
0.0
  0
SOLID
  5
42A
  330
E5
  100
AcDbEntity
  100
AcDbTrace
  8
0
 10
-2.666995
 20
-0.0254
 30
0.0
 11
2.666995
 21
-0.0254
 31
0.0
 12
-2.666995
 22
0.0254
 32
0.0
 13
2.666995
 23
0.0254
 33
0.0
  0
ENDBLK
  5
42B
  330
E5
  100
AcDbEntity
  100
AcDbBlockEnd
  0
BLOCK
  5
42C
  330
163
  100
AcDbEntity
  100
AcDbBlockBegin
  8
0
  2
D245RECTANGLE0_508X0_1778
 70
     0
 10
0.0
 20
0.0
 30
0.0
  0
SOLID
  5
42D
  330
E6
  100
AcDbEntity
  100
AcDbTrace
  8
0
 10
-0.254
 20
-0.0889
 30
0.0
 11
0.254
 21
-0.0889
 31
0.0
 12
-0.254
 22
0.0889
 32
0.0
 13
0.254
 23
0.0889
 33
0.0
  0
ENDBLK
  5
42E
  330
E6
  100
AcDbEntity
  100
AcDbBlockEnd
  0
BLOCK
  5
42F
  330
163
  100
AcDbEntity
  100
AcDbBlockBegin
  8
0
  2
D246RECTANGLE8_07718X0_0508
 70
     0
 10
0.0
 20
0.0
 30
0.0
  0
SOLID
  5
430
  330
E7
  100
AcDbEntity
  100
AcDbTrace
  8
0
 10
-4.038590
 20
-0.0254
 30
0.0
 11
4.038590
 21
-0.0254
 31
0.0
 12
-4.038590
 22
0.0254
 32
0.0
 13
4.038590
 23
0.0254
 33
0.0
  0
ENDBLK
  5
431
  330
E7
  100
AcDbEntity
  100
AcDbBlockEnd
  0
BLOCK
  5
432
  330
163
  100
AcDbEntity
  100
AcDbBlockBegin
  8
0
  2
D247RECTANGLE0_1016X0_0762
 70
     0
 10
0.0
 20
0.0
 30
0.0
  0
SOLID
  5
433
  330
E8
  100
AcDbEntity
  100
AcDbTrace
  8
0
 10
-0.0508
 20
-0.0381
 30
0.0
 11
0.0508
 21
-0.0381
 31
0.0
 12
-0.0508
 22
0.0381
 32
0.0
 13
0.0508
 23
0.0381
 33
0.0
  0
ENDBLK
  5
434
  330
E8
  100
AcDbEntity
  100
AcDbBlockEnd
  0
BLOCK
  5
435
  330
163
  100
AcDbEntity
  100
AcDbBlockBegin
  8
0
  2
D248RECTANGLE1_651X0_0508
 70
     0
 10
0.0
 20
0.0
 30
0.0
  0
SOLID
  5
436
  330
E9
  100
AcDbEntity
  100
AcDbTrace
  8
0
 10
-0.825500
 20
-0.0254
 30
0.0
 11
0.825500
 21
-0.0254
 31
0.0
 12
-0.825500
 22
0.0254
 32
0.0
 13
0.825500
 23
0.0254
 33
0.0
  0
ENDBLK
  5
437
  330
E9
  100
AcDbEntity
  100
AcDbBlockEnd
  0
BLOCK
  5
438
  330
163
  100
AcDbEntity
  100
AcDbBlockBegin
  8
0
  2
D249RECTANGLE8_10258X0_0254
 70
     0
 10
0.0
 20
0.0
 30
0.0
  0
SOLID
  5
439
  330
EA
  100
AcDbEntity
  100
AcDbTrace
  8
0
 10
-4.05129
 20
-0.0127
 30
0.0
 11
4.05129
 21
-0.0127
 31
0.0
 12
-4.05129
 22
0.0127
 32
0.0
 13
4.05129
 23
0.0127
 33
0.0
  0
ENDBLK
  5
43A
  330
EA
  100
AcDbEntity
  100
AcDbBlockEnd
  0
BLOCK
  5
43B
  330
163
  100
AcDbEntity
  100
AcDbBlockBegin
  8
0
  2
D250RECTANGLE0_7366X0_0762
 70
     0
 10
0.0
 20
0.0
 30
0.0
  0
SOLID
  5
43C
  330
EB
  100
AcDbEntity
  100
AcDbTrace
  8
0
 10
-0.3683
 20
-0.0381
 30
0.0
 11
0.3683
 21
-0.0381
 31
0.0
 12
-0.3683
 22
0.0381
 32
0.0
 13
0.3683
 23
0.0381
 33
0.0
  0
ENDBLK
  5
43D
  330
EB
  100
AcDbEntity
  100
AcDbBlockEnd
  0
BLOCK
  5
43E
  330
163
  100
AcDbEntity
  100
AcDbBlockBegin
  8
0
  2
D251RECTANGLE8_12798X0_0254
 70
     0
 10
0.0
 20
0.0
 30
0.0
  0
SOLID
  5
43F
  330
EC
  100
AcDbEntity
  100
AcDbTrace
  8
0
 10
-4.063990
 20
-0.0127
 30
0.0
 11
4.063990
 21
-0.0127
 31
0.0
 12
-4.063990
 22
0.0127
 32
0.0
 13
4.063990
 23
0.0127
 33
0.0
  0
ENDBLK
  5
440
  330
EC
  100
AcDbEntity
  100
AcDbBlockEnd
  0
BLOCK
  5
441
  330
163
  100
AcDbEntity
  100
AcDbBlockBegin
  8
0
  2
D252RECTANGLE0_7112X0_1016
 70
     0
 10
0.0
 20
0.0
 30
0.0
  0
SOLID
  5
442
  330
ED
  100
AcDbEntity
  100
AcDbTrace
  8
0
 10
-0.3556
 20
-0.0508
 30
0.0
 11
0.3556
 21
-0.0508
 31
0.0
 12
-0.3556
 22
0.0508
 32
0.0
 13
0.3556
 23
0.0508
 33
0.0
  0
ENDBLK
  5
443
  330
ED
  100
AcDbEntity
  100
AcDbBlockEnd
  0
BLOCK
  5
444
  330
163
  100
AcDbEntity
  100
AcDbBlockBegin
  8
0
  2
D253SQUARE0_0508X0_0508
 70
     0
 10
0.0
 20
0.0
 30
0.0
  0
SOLID
  5
445
  330
EE
  100
AcDbEntity
  100
AcDbTrace
  8
0
 10
-0.0254
 20
-0.0254
 30
0.0
 11
0.0254
 21
-0.0254
 31
0.0
 12
-0.0254
 22
0.0254
 32
0.0
 13
0.0254
 23
0.0254
 33
0.0
  0
ENDBLK
  5
446
  330
EE
  100
AcDbEntity
  100
AcDbBlockEnd
  0
BLOCK
  5
447
  330
163
  100
AcDbEntity
  100
AcDbBlockBegin
  8
0
  2
D254RECTANGLE1_2192X0_0508
 70
     0
 10
0.0
 20
0.0
 30
0.0
  0
SOLID
  5
448
  330
EF
  100
AcDbEntity
  100
AcDbTrace
  8
0
 10
-0.6096
 20
-0.0254
 30
0.0
 11
0.6096
 21
-0.0254
 31
0.0
 12
-0.6096
 22
0.0254
 32
0.0
 13
0.6096
 23
0.0254
 33
0.0
  0
ENDBLK
  5
449
  330
EF
  100
AcDbEntity
  100
AcDbBlockEnd
  0
BLOCK
  5
44A
  330
163
  100
AcDbEntity
  100
AcDbBlockBegin
  8
0
  2
D255RECTANGLE1_7272X0_0254
 70
     0
 10
0.0
 20
0.0
 30
0.0
  0
SOLID
  5
44B
  330
F0
  100
AcDbEntity
  100
AcDbTrace
  8
0
 10
-0.863600
 20
-0.0127
 30
0.0
 11
0.863600
 21
-0.0127
 31
0.0
 12
-0.863600
 22
0.0127
 32
0.0
 13
0.863600
 23
0.0127
 33
0.0
  0
ENDBLK
  5
44C
  330
F0
  100
AcDbEntity
  100
AcDbBlockEnd
  0
BLOCK
  5
44D
  330
163
  100
AcDbEntity
  100
AcDbBlockBegin
  8
0
  2
D256RECTANGLE8_15338X0_0254
 70
     0
 10
0.0
 20
0.0
 30
0.0
  0
SOLID
  5
44E
  330
F1
  100
AcDbEntity
  100
AcDbTrace
  8
0
 10
-4.076690
 20
-0.0127
 30
0.0
 11
4.076690
 21
-0.0127
 31
0.0
 12
-4.076690
 22
0.0127
 32
0.0
 13
4.076690
 23
0.0127
 33
0.0
  0
ENDBLK
  5
44F
  330
F1
  100
AcDbEntity
  100
AcDbBlockEnd
  0
BLOCK
  5
450
  330
163
  100
AcDbEntity
  100
AcDbBlockBegin
  8
0
  2
D257RECTANGLE3_27659X0_0254
 70
     0
 10
0.0
 20
0.0
 30
0.0
  0
SOLID
  5
451
  330
F2
  100
AcDbEntity
  100
AcDbTrace
  8
0
 10
-1.638295
 20
-0.0127
 30
0.0
 11
1.638295
 21
-0.0127
 31
0.0
 12
-1.638295
 22
0.0127
 32
0.0
 13
1.638295
 23
0.0127
 33
0.0
  0
ENDBLK
  5
452
  330
F2
  100
AcDbEntity
  100
AcDbBlockEnd
  0
BLOCK
  5
453
  330
163
  100
AcDbEntity
  100
AcDbBlockBegin
  8
0
  2
D258RECTANGLE1_2446X0_0508
 70
     0
 10
0.0
 20
0.0
 30
0.0
  0
SOLID
  5
454
  330
F3
  100
AcDbEntity
  100
AcDbTrace
  8
0
 10
-0.6223
 20
-0.0254
 30
0.0
 11
0.6223
 21
-0.0254
 31
0.0
 12
-0.6223
 22
0.0254
 32
0.0
 13
0.6223
 23
0.0254
 33
0.0
  0
ENDBLK
  5
455
  330
F3
  100
AcDbEntity
  100
AcDbBlockEnd
  0
BLOCK
  5
456
  330
163
  100
AcDbEntity
  100
AcDbBlockBegin
  8
0
  2
D259RECTANGLE3_32739X0_0254
 70
     0
 10
0.0
 20
0.0
 30
0.0
  0
SOLID
  5
457
  330
F4
  100
AcDbEntity
  100
AcDbTrace
  8
0
 10
-1.663695
 20
-0.0127
 30
0.0
 11
1.663695
 21
-0.0127
 31
0.0
 12
-1.663695
 22
0.0127
 32
0.0
 13
1.663695
 23
0.0127
 33
0.0
  0
ENDBLK
  5
458
  330
F4
  100
AcDbEntity
  100
AcDbBlockEnd
  0
BLOCK
  5
459
  330
163
  100
AcDbEntity
  100
AcDbBlockBegin
  8
0
  2
D260RECTANGLE2_032X0_0508
 70
     0
 10
0.0
 20
0.0
 30
0.0
  0
SOLID
  5
45A
  330
F5
  100
AcDbEntity
  100
AcDbTrace
  8
0
 10
-1.016
 20
-0.0254
 30
0.0
 11
1.016
 21
-0.0254
 31
0.0
 12
-1.016
 22
0.0254
 32
0.0
 13
1.016
 23
0.0254
 33
0.0
  0
ENDBLK
  5
45B
  330
F5
  100
AcDbEntity
  100
AcDbBlockEnd
  0
BLOCK
  5
45C
  330
163
  100
AcDbEntity
  100
AcDbBlockBegin
  8
0
  2
D261RECTANGLE3_37819X0_0254
 70
     0
 10
0.0
 20
0.0
 30
0.0
  0
SOLID
  5
45D
  330
F6
  100
AcDbEntity
  100
AcDbTrace
  8
0
 10
-1.689095
 20
-0.0127
 30
0.0
 11
1.689095
 21
-0.0127
 31
0.0
 12
-1.689095
 22
0.0127
 32
0.0
 13
1.689095
 23
0.0127
 33
0.0
  0
ENDBLK
  5
45E
  330
F6
  100
AcDbEntity
  100
AcDbBlockEnd
  0
BLOCK
  5
45F
  330
163
  100
AcDbEntity
  100
AcDbBlockBegin
  8
0
  2
D262RECTANGLE4_85139X0_0762
 70
     0
 10
0.0
 20
0.0
 30
0.0
  0
SOLID
  5
460
  330
F7
  100
AcDbEntity
  100
AcDbTrace
  8
0
 10
-2.425695
 20
-0.0381
 30
0.0
 11
2.425695
 21
-0.0381
 31
0.0
 12
-2.425695
 22
0.0381
 32
0.0
 13
2.425695
 23
0.0381
 33
0.0
  0
ENDBLK
  5
461
  330
F7
  100
AcDbEntity
  100
AcDbBlockEnd
  0
BLOCK
  5
462
  330
163
  100
AcDbEntity
  100
AcDbBlockBegin
  8
0
  2
D263RECTANGLE3_40359X0_0254
 70
     0
 10
0.0
 20
0.0
 30
0.0
  0
SOLID
  5
463
  330
F8
  100
AcDbEntity
  100
AcDbTrace
  8
0
 10
-1.701795
 20
-0.0127
 30
0.0
 11
1.701795
 21
-0.0127
 31
0.0
 12
-1.701795
 22
0.0127
 32
0.0
 13
1.701795
 23
0.0127
 33
0.0
  0
ENDBLK
  5
464
  330
F8
  100
AcDbEntity
  100
AcDbBlockEnd
  0
BLOCK
  5
465
  330
163
  100
AcDbEntity
  100
AcDbBlockBegin
  8
0
  2
D264RECTANGLE0_7112X0_9144
 70
     0
 10
0.0
 20
0.0
 30
0.0
  0
SOLID
  5
466
  330
F9
  100
AcDbEntity
  100
AcDbTrace
  8
0
 10
-0.3556
 20
-0.4572
 30
0.0
 11
0.3556
 21
-0.4572
 31
0.0
 12
-0.3556
 22
0.4572
 32
0.0
 13
0.3556
 23
0.4572
 33
0.0
  0
ENDBLK
  5
467
  330
F9
  100
AcDbEntity
  100
AcDbBlockEnd
  0
BLOCK
  5
468
  330
163
  100
AcDbEntity
  100
AcDbBlockBegin
  8
0
  2
D265RECTANGLE26_7969X0_5588
 70
     0
 10
0.0
 20
0.0
 30
0.0
  0
SOLID
  5
469
  330
FA
  100
AcDbEntity
  100
AcDbTrace
  8
0
 10
-13.398475
 20
-0.2794
 30
0.0
 11
13.398475
 21
-0.2794
 31
0.0
 12
-13.398475
 22
0.2794
 32
0.0
 13
13.398475
 23
0.2794
 33
0.0
  0
ENDBLK
  5
46A
  330
FA
  100
AcDbEntity
  100
AcDbBlockEnd
  0
BLOCK
  5
46B
  330
163
  100
AcDbEntity
  100
AcDbBlockBegin
  8
0
  2
D266RECTANGLE0_1016X0_0508
 70
     0
 10
0.0
 20
0.0
 30
0.0
  0
SOLID
  5
46C
  330
FB
  100
AcDbEntity
  100
AcDbTrace
  8
0
 10
-0.0508
 20
-0.0254
 30
0.0
 11
0.0508
 21
-0.0254
 31
0.0
 12
-0.0508
 22
0.0254
 32
0.0
 13
0.0508
 23
0.0254
 33
0.0
  0
ENDBLK
  5
46D
  330
FB
  100
AcDbEntity
  100
AcDbBlockEnd
  0
BLOCK
  5
46E
  330
163
  100
AcDbEntity
  100
AcDbBlockBegin
  8
0
  2
D267RECTANGLE0_3556X2_5654
 70
     0
 10
0.0
 20
0.0
 30
0.0
  0
SOLID
  5
46F
  330
FC
  100
AcDbEntity
  100
AcDbTrace
  8
0
 10
-0.1778
 20
-1.2827
 30
0.0
 11
0.1778
 21
-1.2827
 31
0.0
 12
-0.1778
 22
1.2827
 32
0.0
 13
0.1778
 23
1.2827
 33
0.0
  0
ENDBLK
  5
470
  330
FC
  100
AcDbEntity
  100
AcDbBlockEnd
  0
BLOCK
  5
471
  330
163
  100
AcDbEntity
  100
AcDbBlockBegin
  8
0
  2
D268RECTANGLE0_2032X2_5654
 70
     0
 10
0.0
 20
0.0
 30
0.0
  0
SOLID
  5
472
  330
FD
  100
AcDbEntity
  100
AcDbTrace
  8
0
 10
-0.1016
 20
-1.2827
 30
0.0
 11
0.1016
 21
-1.2827
 31
0.0
 12
-0.1016
 22
1.2827
 32
0.0
 13
0.1016
 23
1.2827
 33
0.0
  0
ENDBLK
  5
473
  330
FD
  100
AcDbEntity
  100
AcDbBlockEnd
  0
BLOCK
  5
474
  330
163
  100
AcDbEntity
  100
AcDbBlockBegin
  8
0
  2
D269RECTANGLE0_127X2_5654
 70
     0
 10
0.0
 20
0.0
 30
0.0
  0
SOLID
  5
475
  330
FE
  100
AcDbEntity
  100
AcDbTrace
  8
0
 10
-0.0635
 20
-1.2827
 30
0.0
 11
0.0635
 21
-1.2827
 31
0.0
 12
-0.0635
 22
1.2827
 32
0.0
 13
0.0635
 23
1.2827
 33
0.0
  0
ENDBLK
  5
476
  330
FE
  100
AcDbEntity
  100
AcDbBlockEnd
  0
BLOCK
  5
477
  330
163
  100
AcDbEntity
  100
AcDbBlockBegin
  8
0
  2
D270RECTANGLE0_2794X2_5654
 70
     0
 10
0.0
 20
0.0
 30
0.0
  0
SOLID
  5
478
  330
FF
  100
AcDbEntity
  100
AcDbTrace
  8
0
 10
-0.1397
 20
-1.2827
 30
0.0
 11
0.1397
 21
-1.2827
 31
0.0
 12
-0.1397
 22
1.2827
 32
0.0
 13
0.1397
 23
1.2827
 33
0.0
  0
ENDBLK
  5
479
  330
FF
  100
AcDbEntity
  100
AcDbBlockEnd
  0
BLOCK
  5
47A
  330
163
  100
AcDbEntity
  100
AcDbBlockBegin
  8
0
  2
D271RECTANGLE0_127X2_5146
 70
     0
 10
0.0
 20
0.0
 30
0.0
  0
SOLID
  5
47B
  330
100
  100
AcDbEntity
  100
AcDbTrace
  8
0
 10
-0.0635
 20
-1.2573
 30
0.0
 11
0.0635
 21
-1.2573
 31
0.0
 12
-0.0635
 22
1.2573
 32
0.0
 13
0.0635
 23
1.2573
 33
0.0
  0
ENDBLK
  5
47C
  330
100
  100
AcDbEntity
  100
AcDbBlockEnd
  0
BLOCK
  5
47D
  330
163
  100
AcDbEntity
  100
AcDbBlockBegin
  8
0
  2
D272RECTANGLE0_381X2_5654
 70
     0
 10
0.0
 20
0.0
 30
0.0
  0
SOLID
  5
47E
  330
101
  100
AcDbEntity
  100
AcDbTrace
  8
0
 10
-0.1905
 20
-1.2827
 30
0.0
 11
0.1905
 21
-1.2827
 31
0.0
 12
-0.1905
 22
1.2827
 32
0.0
 13
0.1905
 23
1.2827
 33
0.0
  0
ENDBLK
  5
47F
  330
101
  100
AcDbEntity
  100
AcDbBlockEnd
  0
BLOCK
  5
480
  330
163
  100
AcDbEntity
  100
AcDbBlockBegin
  8
0
  2
D273RECTANGLE0_2032X2_5146
 70
     0
 10
0.0
 20
0.0
 30
0.0
  0
SOLID
  5
481
  330
102
  100
AcDbEntity
  100
AcDbTrace
  8
0
 10
-0.1016
 20
-1.2573
 30
0.0
 11
0.1016
 21
-1.2573
 31
0.0
 12
-0.1016
 22
1.2573
 32
0.0
 13
0.1016
 23
1.2573
 33
0.0
  0
ENDBLK
  5
482
  330
102
  100
AcDbEntity
  100
AcDbBlockEnd
  0
BLOCK
  5
483
  330
163
  100
AcDbEntity
  100
AcDbBlockBegin
  8
0
  2
D274RECTANGLE0_381X2_5146
 70
     0
 10
0.0
 20
0.0
 30
0.0
  0
SOLID
  5
484
  330
103
  100
AcDbEntity
  100
AcDbTrace
  8
0
 10
-0.1905
 20
-1.2573
 30
0.0
 11
0.1905
 21
-1.2573
 31
0.0
 12
-0.1905
 22
1.2573
 32
0.0
 13
0.1905
 23
1.2573
 33
0.0
  0
ENDBLK
  5
485
  330
103
  100
AcDbEntity
  100
AcDbBlockEnd
  0
BLOCK
  5
486
  330
163
  100
AcDbEntity
  100
AcDbBlockBegin
  8
0
  2
D275RECTANGLE0_4826X2_5908
 70
     0
 10
0.0
 20
0.0
 30
0.0
  0
SOLID
  5
487
  330
104
  100
AcDbEntity
  100
AcDbTrace
  8
0
 10
-0.2413
 20
-1.2954
 30
0.0
 11
0.2413
 21
-1.2954
 31
0.0
 12
-0.2413
 22
1.2954
 32
0.0
 13
0.2413
 23
1.2954
 33
0.0
  0
ENDBLK
  5
488
  330
104
  100
AcDbEntity
  100
AcDbBlockEnd
  0
BLOCK
  5
489
  330
163
  100
AcDbEntity
  100
AcDbBlockBegin
  8
0
  2
D276RECTANGLE0_127X2_5908
 70
     0
 10
0.0
 20
0.0
 30
0.0
  0
SOLID
  5
48A
  330
105
  100
AcDbEntity
  100
AcDbTrace
  8
0
 10
-0.0635
 20
-1.2954
 30
0.0
 11
0.0635
 21
-1.2954
 31
0.0
 12
-0.0635
 22
1.2954
 32
0.0
 13
0.0635
 23
1.2954
 33
0.0
  0
ENDBLK
  5
48B
  330
105
  100
AcDbEntity
  100
AcDbBlockEnd
  0
BLOCK
  5
48C
  330
163
  100
AcDbEntity
  100
AcDbBlockBegin
  8
0
  2
D277RECTANGLE0_1016X2_5908
 70
     0
 10
0.0
 20
0.0
 30
0.0
  0
SOLID
  5
48D
  330
106
  100
AcDbEntity
  100
AcDbTrace
  8
0
 10
-0.0508
 20
-1.2954
 30
0.0
 11
0.0508
 21
-1.2954
 31
0.0
 12
-0.0508
 22
1.2954
 32
0.0
 13
0.0508
 23
1.2954
 33
0.0
  0
ENDBLK
  5
48E
  330
106
  100
AcDbEntity
  100
AcDbBlockEnd
  0
BLOCK
  5
48F
  330
163
  100
AcDbEntity
  100
AcDbBlockBegin
  8
0
  2
D278RECTANGLE0_2794X2_5908
 70
     0
 10
0.0
 20
0.0
 30
0.0
  0
SOLID
  5
490
  330
107
  100
AcDbEntity
  100
AcDbTrace
  8
0
 10
-0.1397
 20
-1.2954
 30
0.0
 11
0.1397
 21
-1.2954
 31
0.0
 12
-0.1397
 22
1.2954
 32
0.0
 13
0.1397
 23
1.2954
 33
0.0
  0
ENDBLK
  5
491
  330
107
  100
AcDbEntity
  100
AcDbBlockEnd
  0
BLOCK
  5
492
  330
163
  100
AcDbEntity
  100
AcDbBlockBegin
  8
0
  2
D279RECTANGLE0_254X2_5908
 70
     0
 10
0.0
 20
0.0
 30
0.0
  0
SOLID
  5
493
  330
108
  100
AcDbEntity
  100
AcDbTrace
  8
0
 10
-0.127
 20
-1.2954
 30
0.0
 11
0.127
 21
-1.2954
 31
0.0
 12
-0.127
 22
1.2954
 32
0.0
 13
0.127
 23
1.2954
 33
0.0
  0
ENDBLK
  5
494
  330
108
  100
AcDbEntity
  100
AcDbBlockEnd
  0
BLOCK
  5
495
  330
163
  100
AcDbEntity
  100
AcDbBlockBegin
  8
0
  2
D280RECTANGLE0_2032X2_5908
 70
     0
 10
0.0
 20
0.0
 30
0.0
  0
SOLID
  5
496
  330
109
  100
AcDbEntity
  100
AcDbTrace
  8
0
 10
-0.1016
 20
-1.2954
 30
0.0
 11
0.1016
 21
-1.2954
 31
0.0
 12
-0.1016
 22
1.2954
 32
0.0
 13
0.1016
 23
1.2954
 33
0.0
  0
ENDBLK
  5
497
  330
109
  100
AcDbEntity
  100
AcDbBlockEnd
  0
BLOCK
  5
498
  330
163
  100
AcDbEntity
  100
AcDbBlockBegin
  8
0
  2
D281RECTANGLE0_1778X2_5908
 70
     0
 10
0.0
 20
0.0
 30
0.0
  0
SOLID
  5
499
  330
10A
  100
AcDbEntity
  100
AcDbTrace
  8
0
 10
-0.0889
 20
-1.2954
 30
0.0
 11
0.0889
 21
-1.2954
 31
0.0
 12
-0.0889
 22
1.2954
 32
0.0
 13
0.0889
 23
1.2954
 33
0.0
  0
ENDBLK
  5
49A
  330
10A
  100
AcDbEntity
  100
AcDbBlockEnd
  0
BLOCK
  5
49B
  330
163
  100
AcDbEntity
  100
AcDbBlockBegin
  8
0
  2
D282RECTANGLE0_2286X2_5908
 70
     0
 10
0.0
 20
0.0
 30
0.0
  0
SOLID
  5
49C
  330
10B
  100
AcDbEntity
  100
AcDbTrace
  8
0
 10
-0.1143
 20
-1.2954
 30
0.0
 11
0.1143
 21
-1.2954
 31
0.0
 12
-0.1143
 22
1.2954
 32
0.0
 13
0.1143
 23
1.2954
 33
0.0
  0
ENDBLK
  5
49D
  330
10B
  100
AcDbEntity
  100
AcDbBlockEnd
  0
BLOCK
  5
49E
  330
163
  100
AcDbEntity
  100
AcDbBlockBegin
  8
0
  2
D283RECTANGLE0_3556X2_5908
 70
     0
 10
0.0
 20
0.0
 30
0.0
  0
SOLID
  5
49F
  330
10C
  100
AcDbEntity
  100
AcDbTrace
  8
0
 10
-0.1778
 20
-1.2954
 30
0.0
 11
0.1778
 21
-1.2954
 31
0.0
 12
-0.1778
 22
1.2954
 32
0.0
 13
0.1778
 23
1.2954
 33
0.0
  0
ENDBLK
  5
4A0
  330
10C
  100
AcDbEntity
  100
AcDbBlockEnd
  0
BLOCK
  5
4A1
  330
163
  100
AcDbEntity
  100
AcDbBlockBegin
  8
0
  2
D284RECTANGLE0_381X2_5908
 70
     0
 10
0.0
 20
0.0
 30
0.0
  0
SOLID
  5
4A2
  330
10D
  100
AcDbEntity
  100
AcDbTrace
  8
0
 10
-0.1905
 20
-1.2954
 30
0.0
 11
0.1905
 21
-1.2954
 31
0.0
 12
-0.1905
 22
1.2954
 32
0.0
 13
0.1905
 23
1.2954
 33
0.0
  0
ENDBLK
  5
4A3
  330
10D
  100
AcDbEntity
  100
AcDbBlockEnd
  0
BLOCK
  5
4A4
  330
163
  100
AcDbEntity
  100
AcDbBlockBegin
  8
0
  2
D285RECTANGLE26_7969X0_508
 70
     0
 10
0.0
 20
0.0
 30
0.0
  0
SOLID
  5
4A5
  330
10E
  100
AcDbEntity
  100
AcDbTrace
  8
0
 10
-13.398475
 20
-0.254
 30
0.0
 11
13.398475
 21
-0.254
 31
0.0
 12
-13.398475
 22
0.254
 32
0.0
 13
13.398475
 23
0.254
 33
0.0
  0
ENDBLK
  5
4A6
  330
10E
  100
AcDbEntity
  100
AcDbBlockEnd
  0
BLOCK
  5
4A7
  330
163
  100
AcDbEntity
  100
AcDbBlockBegin
  8
0
  2
D286RECTANGLE5_74039X0_0254
 70
     0
 10
0.0
 20
0.0
 30
0.0
  0
SOLID
  5
4A8
  330
10F
  100
AcDbEntity
  100
AcDbTrace
  8
0
 10
-2.870195
 20
-0.0127
 30
0.0
 11
2.870195
 21
-0.0127
 31
0.0
 12
-2.870195
 22
0.0127
 32
0.0
 13
2.870195
 23
0.0127
 33
0.0
  0
ENDBLK
  5
4A9
  330
10F
  100
AcDbEntity
  100
AcDbBlockEnd
  0
BLOCK
  5
4AA
  330
163
  100
AcDbEntity
  100
AcDbBlockBegin
  8
0
  2
D287RECTANGLE5_84199X0_0254
 70
     0
 10
0.0
 20
0.0
 30
0.0
  0
SOLID
  5
4AB
  330
110
  100
AcDbEntity
  100
AcDbTrace
  8
0
 10
-2.920995
 20
-0.0127
 30
0.0
 11
2.920995
 21
-0.0127
 31
0.0
 12
-2.920995
 22
0.0127
 32
0.0
 13
2.920995
 23
0.0127
 33
0.0
  0
ENDBLK
  5
4AC
  330
110
  100
AcDbEntity
  100
AcDbBlockEnd
  0
BLOCK
  5
4AD
  330
163
  100
AcDbEntity
  100
AcDbBlockBegin
  8
0
  2
D288RECTANGLE5_94359X0_0254
 70
     0
 10
0.0
 20
0.0
 30
0.0
  0
SOLID
  5
4AE
  330
111
  100
AcDbEntity
  100
AcDbTrace
  8
0
 10
-2.971795
 20
-0.0127
 30
0.0
 11
2.971795
 21
-0.0127
 31
0.0
 12
-2.971795
 22
0.0127
 32
0.0
 13
2.971795
 23
0.0127
 33
0.0
  0
ENDBLK
  5
4AF
  330
111
  100
AcDbEntity
  100
AcDbBlockEnd
  0
BLOCK
  5
4B0
  330
163
  100
AcDbEntity
  100
AcDbBlockBegin
  8
0
  2
D289RECTANGLE6_01979X0_0254
 70
     0
 10
0.0
 20
0.0
 30
0.0
  0
SOLID
  5
4B1
  330
112
  100
AcDbEntity
  100
AcDbTrace
  8
0
 10
-3.009895
 20
-0.0127
 30
0.0
 11
3.009895
 21
-0.0127
 31
0.0
 12
-3.009895
 22
0.0127
 32
0.0
 13
3.009895
 23
0.0127
 33
0.0
  0
ENDBLK
  5
4B2
  330
112
  100
AcDbEntity
  100
AcDbBlockEnd
  0
BLOCK
  5
4B3
  330
163
  100
AcDbEntity
  100
AcDbBlockBegin
  8
0
  2
D290RECTANGLE6_12139X0_0254
 70
     0
 10
0.0
 20
0.0
 30
0.0
  0
SOLID
  5
4B4
  330
113
  100
AcDbEntity
  100
AcDbTrace
  8
0
 10
-3.060695
 20
-0.0127
 30
0.0
 11
3.060695
 21
-0.0127
 31
0.0
 12
-3.060695
 22
0.0127
 32
0.0
 13
3.060695
 23
0.0127
 33
0.0
  0
ENDBLK
  5
4B5
  330
113
  100
AcDbEntity
  100
AcDbBlockEnd
  0
BLOCK
  5
4B6
  330
163
  100
AcDbEntity
  100
AcDbBlockBegin
  8
0
  2
D291RECTANGLE6_17219X0_0254
 70
     0
 10
0.0
 20
0.0
 30
0.0
  0
SOLID
  5
4B7
  330
114
  100
AcDbEntity
  100
AcDbTrace
  8
0
 10
-3.086095
 20
-0.0127
 30
0.0
 11
3.086095
 21
-0.0127
 31
0.0
 12
-3.086095
 22
0.0127
 32
0.0
 13
3.086095
 23
0.0127
 33
0.0
  0
ENDBLK
  5
4B8
  330
114
  100
AcDbEntity
  100
AcDbBlockEnd
  0
BLOCK
  5
4B9
  330
163
  100
AcDbEntity
  100
AcDbBlockBegin
  8
0
  2
D292RECTANGLE6_24839X0_0254
 70
     0
 10
0.0
 20
0.0
 30
0.0
  0
SOLID
  5
4BA
  330
115
  100
AcDbEntity
  100
AcDbTrace
  8
0
 10
-3.124195
 20
-0.0127
 30
0.0
 11
3.124195
 21
-0.0127
 31
0.0
 12
-3.124195
 22
0.0127
 32
0.0
 13
3.124195
 23
0.0127
 33
0.0
  0
ENDBLK
  5
4BB
  330
115
  100
AcDbEntity
  100
AcDbBlockEnd
  0
BLOCK
  5
4BC
  330
163
  100
AcDbEntity
  100
AcDbBlockBegin
  8
0
  2
D293RECTANGLE6_29919X0_0254
 70
     0
 10
0.0
 20
0.0
 30
0.0
  0
SOLID
  5
4BD
  330
116
  100
AcDbEntity
  100
AcDbTrace
  8
0
 10
-3.149595
 20
-0.0127
 30
0.0
 11
3.149595
 21
-0.0127
 31
0.0
 12
-3.149595
 22
0.0127
 32
0.0
 13
3.149595
 23
0.0127
 33
0.0
  0
ENDBLK
  5
4BE
  330
116
  100
AcDbEntity
  100
AcDbBlockEnd
  0
BLOCK
  5
4BF
  330
163
  100
AcDbEntity
  100
AcDbBlockBegin
  8
0
  2
D294RECTANGLE6_37539X0_0254
 70
     0
 10
0.0
 20
0.0
 30
0.0
  0
SOLID
  5
4C0
  330
117
  100
AcDbEntity
  100
AcDbTrace
  8
0
 10
-3.187695
 20
-0.0127
 30
0.0
 11
3.187695
 21
-0.0127
 31
0.0
 12
-3.187695
 22
0.0127
 32
0.0
 13
3.187695
 23
0.0127
 33
0.0
  0
ENDBLK
  5
4C1
  330
117
  100
AcDbEntity
  100
AcDbBlockEnd
  0
BLOCK
  5
4C2
  330
163
  100
AcDbEntity
  100
AcDbBlockBegin
  8
0
  2
D295RECTANGLE6_42619X0_0254
 70
     0
 10
0.0
 20
0.0
 30
0.0
  0
SOLID
  5
4C3
  330
118
  100
AcDbEntity
  100
AcDbTrace
  8
0
 10
-3.213095
 20
-0.0127
 30
0.0
 11
3.213095
 21
-0.0127
 31
0.0
 12
-3.213095
 22
0.0127
 32
0.0
 13
3.213095
 23
0.0127
 33
0.0
  0
ENDBLK
  5
4C4
  330
118
  100
AcDbEntity
  100
AcDbBlockEnd
  0
BLOCK
  5
4C5
  330
163
  100
AcDbEntity
  100
AcDbBlockBegin
  8
0
  2
D296RECTANGLE6_47699X0_0254
 70
     0
 10
0.0
 20
0.0
 30
0.0
  0
SOLID
  5
4C6
  330
119
  100
AcDbEntity
  100
AcDbTrace
  8
0
 10
-3.238495
 20
-0.0127
 30
0.0
 11
3.238495
 21
-0.0127
 31
0.0
 12
-3.238495
 22
0.0127
 32
0.0
 13
3.238495
 23
0.0127
 33
0.0
  0
ENDBLK
  5
4C7
  330
119
  100
AcDbEntity
  100
AcDbBlockEnd
  0
BLOCK
  5
4C8
  330
163
  100
AcDbEntity
  100
AcDbBlockBegin
  8
0
  2
D297RECTANGLE6_50239X0_0254
 70
     0
 10
0.0
 20
0.0
 30
0.0
  0
SOLID
  5
4C9
  330
11A
  100
AcDbEntity
  100
AcDbTrace
  8
0
 10
-3.251195
 20
-0.0127
 30
0.0
 11
3.251195
 21
-0.0127
 31
0.0
 12
-3.251195
 22
0.0127
 32
0.0
 13
3.251195
 23
0.0127
 33
0.0
  0
ENDBLK
  5
4CA
  330
11A
  100
AcDbEntity
  100
AcDbBlockEnd
  0
BLOCK
  5
4CB
  330
163
  100
AcDbEntity
  100
AcDbBlockBegin
  8
0
  2
D298RECTANGLE6_55319X0_0254
 70
     0
 10
0.0
 20
0.0
 30
0.0
  0
SOLID
  5
4CC
  330
11B
  100
AcDbEntity
  100
AcDbTrace
  8
0
 10
-3.276595
 20
-0.0127
 30
0.0
 11
3.276595
 21
-0.0127
 31
0.0
 12
-3.276595
 22
0.0127
 32
0.0
 13
3.276595
 23
0.0127
 33
0.0
  0
ENDBLK
  5
4CD
  330
11B
  100
AcDbEntity
  100
AcDbBlockEnd
  0
BLOCK
  5
4CE
  330
163
  100
AcDbEntity
  100
AcDbBlockBegin
  8
0
  2
D299RECTANGLE6_60399X0_0254
 70
     0
 10
0.0
 20
0.0
 30
0.0
  0
SOLID
  5
4CF
  330
11C
  100
AcDbEntity
  100
AcDbTrace
  8
0
 10
-3.301995
 20
-0.0127
 30
0.0
 11
3.301995
 21
-0.0127
 31
0.0
 12
-3.301995
 22
0.0127
 32
0.0
 13
3.301995
 23
0.0127
 33
0.0
  0
ENDBLK
  5
4D0
  330
11C
  100
AcDbEntity
  100
AcDbBlockEnd
  0
BLOCK
  5
4D1
  330
163
  100
AcDbEntity
  100
AcDbBlockBegin
  8
0
  2
D300RECTANGLE6_65479X0_0254
 70
     0
 10
0.0
 20
0.0
 30
0.0
  0
SOLID
  5
4D2
  330
11D
  100
AcDbEntity
  100
AcDbTrace
  8
0
 10
-3.327395
 20
-0.0127
 30
0.0
 11
3.327395
 21
-0.0127
 31
0.0
 12
-3.327395
 22
0.0127
 32
0.0
 13
3.327395
 23
0.0127
 33
0.0
  0
ENDBLK
  5
4D3
  330
11D
  100
AcDbEntity
  100
AcDbBlockEnd
  0
BLOCK
  5
4D4
  330
163
  100
AcDbEntity
  100
AcDbBlockBegin
  8
0
  2
D301RECTANGLE6_68019X0_0254
 70
     0
 10
0.0
 20
0.0
 30
0.0
  0
SOLID
  5
4D5
  330
11E
  100
AcDbEntity
  100
AcDbTrace
  8
0
 10
-3.340095
 20
-0.0127
 30
0.0
 11
3.340095
 21
-0.0127
 31
0.0
 12
-3.340095
 22
0.0127
 32
0.0
 13
3.340095
 23
0.0127
 33
0.0
  0
ENDBLK
  5
4D6
  330
11E
  100
AcDbEntity
  100
AcDbBlockEnd
  0
BLOCK
  5
4D7
  330
163
  100
AcDbEntity
  100
AcDbBlockBegin
  8
0
  2
D302RECTANGLE6_70559X0_0254
 70
     0
 10
0.0
 20
0.0
 30
0.0
  0
SOLID
  5
4D8
  330
11F
  100
AcDbEntity
  100
AcDbTrace
  8
0
 10
-3.352795
 20
-0.0127
 30
0.0
 11
3.352795
 21
-0.0127
 31
0.0
 12
-3.352795
 22
0.0127
 32
0.0
 13
3.352795
 23
0.0127
 33
0.0
  0
ENDBLK
  5
4D9
  330
11F
  100
AcDbEntity
  100
AcDbBlockEnd
  0
BLOCK
  5
4DA
  330
163
  100
AcDbEntity
  100
AcDbBlockBegin
  8
0
  2
D303RECTANGLE6_75639X0_0254
 70
     0
 10
0.0
 20
0.0
 30
0.0
  0
SOLID
  5
4DB
  330
120
  100
AcDbEntity
  100
AcDbTrace
  8
0
 10
-3.378195
 20
-0.0127
 30
0.0
 11
3.378195
 21
-0.0127
 31
0.0
 12
-3.378195
 22
0.0127
 32
0.0
 13
3.378195
 23
0.0127
 33
0.0
  0
ENDBLK
  5
4DC
  330
120
  100
AcDbEntity
  100
AcDbBlockEnd
  0
BLOCK
  5
4DD
  330
163
  100
AcDbEntity
  100
AcDbBlockBegin
  8
0
  2
D304RECTANGLE6_78179X0_0254
 70
     0
 10
0.0
 20
0.0
 30
0.0
  0
SOLID
  5
4DE
  330
121
  100
AcDbEntity
  100
AcDbTrace
  8
0
 10
-3.390895
 20
-0.0127
 30
0.0
 11
3.390895
 21
-0.0127
 31
0.0
 12
-3.390895
 22
0.0127
 32
0.0
 13
3.390895
 23
0.0127
 33
0.0
  0
ENDBLK
  5
4DF
  330
121
  100
AcDbEntity
  100
AcDbBlockEnd
  0
BLOCK
  5
4E0
  330
163
  100
AcDbEntity
  100
AcDbBlockBegin
  8
0
  2
D305RECTANGLE6_80719X0_0254
 70
     0
 10
0.0
 20
0.0
 30
0.0
  0
SOLID
  5
4E1
  330
122
  100
AcDbEntity
  100
AcDbTrace
  8
0
 10
-3.403595
 20
-0.0127
 30
0.0
 11
3.403595
 21
-0.0127
 31
0.0
 12
-3.403595
 22
0.0127
 32
0.0
 13
3.403595
 23
0.0127
 33
0.0
  0
ENDBLK
  5
4E2
  330
122
  100
AcDbEntity
  100
AcDbBlockEnd
  0
BLOCK
  5
4E3
  330
163
  100
AcDbEntity
  100
AcDbBlockBegin
  8
0
  2
D306RECTANGLE6_83259X0_0254
 70
     0
 10
0.0
 20
0.0
 30
0.0
  0
SOLID
  5
4E4
  330
123
  100
AcDbEntity
  100
AcDbTrace
  8
0
 10
-3.416295
 20
-0.0127
 30
0.0
 11
3.416295
 21
-0.0127
 31
0.0
 12
-3.416295
 22
0.0127
 32
0.0
 13
3.416295
 23
0.0127
 33
0.0
  0
ENDBLK
  5
4E5
  330
123
  100
AcDbEntity
  100
AcDbBlockEnd
  0
BLOCK
  5
4E6
  330
163
  100
AcDbEntity
  100
AcDbBlockBegin
  8
0
  2
D307RECTANGLE3_35279X0_0254
 70
     0
 10
0.0
 20
0.0
 30
0.0
  0
SOLID
  5
4E7
  330
124
  100
AcDbEntity
  100
AcDbTrace
  8
0
 10
-1.676395
 20
-0.0127
 30
0.0
 11
1.676395
 21
-0.0127
 31
0.0
 12
-1.676395
 22
0.0127
 32
0.0
 13
1.676395
 23
0.0127
 33
0.0
  0
ENDBLK
  5
4E8
  330
124
  100
AcDbEntity
  100
AcDbBlockEnd
  0
BLOCK
  5
4E9
  330
163
  100
AcDbEntity
  100
AcDbBlockBegin
  8
0
  2
D308RECTANGLE3_20039X0_0254
 70
     0
 10
0.0
 20
0.0
 30
0.0
  0
SOLID
  5
4EA
  330
125
  100
AcDbEntity
  100
AcDbTrace
  8
0
 10
-1.600195
 20
-0.0127
 30
0.0
 11
1.600195
 21
-0.0127
 31
0.0
 12
-1.600195
 22
0.0127
 32
0.0
 13
1.600195
 23
0.0127
 33
0.0
  0
ENDBLK
  5
4EB
  330
125
  100
AcDbEntity
  100
AcDbBlockEnd
  0
BLOCK
  5
4EC
  330
163
  100
AcDbEntity
  100
AcDbBlockBegin
  8
0
  2
D309RECTANGLE3_30199X0_0254
 70
     0
 10
0.0
 20
0.0
 30
0.0
  0
SOLID
  5
4ED
  330
126
  100
AcDbEntity
  100
AcDbTrace
  8
0
 10
-1.650995
 20
-0.0127
 30
0.0
 11
1.650995
 21
-0.0127
 31
0.0
 12
-1.650995
 22
0.0127
 32
0.0
 13
1.650995
 23
0.0127
 33
0.0
  0
ENDBLK
  5
4EE
  330
126
  100
AcDbEntity
  100
AcDbBlockEnd
  0
BLOCK
  5
4EF
  330
163
  100
AcDbEntity
  100
AcDbBlockBegin
  8
0
  2
D310RECTANGLE3_17499X0_0254
 70
     0
 10
0.0
 20
0.0
 30
0.0
  0
SOLID
  5
4F0
  330
127
  100
AcDbEntity
  100
AcDbTrace
  8
0
 10
-1.587495
 20
-0.0127
 30
0.0
 11
1.587495
 21
-0.0127
 31
0.0
 12
-1.587495
 22
0.0127
 32
0.0
 13
1.587495
 23
0.0127
 33
0.0
  0
ENDBLK
  5
4F1
  330
127
  100
AcDbEntity
  100
AcDbBlockEnd
  0
BLOCK
  5
4F2
  330
163
  100
AcDbEntity
  100
AcDbBlockBegin
  8
0
  2
D311RECTANGLE3_14959X0_0254
 70
     0
 10
0.0
 20
0.0
 30
0.0
  0
SOLID
  5
4F3
  330
128
  100
AcDbEntity
  100
AcDbTrace
  8
0
 10
-1.574795
 20
-0.0127
 30
0.0
 11
1.574795
 21
-0.0127
 31
0.0
 12
-1.574795
 22
0.0127
 32
0.0
 13
1.574795
 23
0.0127
 33
0.0
  0
ENDBLK
  5
4F4
  330
128
  100
AcDbEntity
  100
AcDbBlockEnd
  0
BLOCK
  5
4F5
  330
163
  100
AcDbEntity
  100
AcDbBlockBegin
  8
0
  2
D312RECTANGLE3_12419X0_0254
 70
     0
 10
0.0
 20
0.0
 30
0.0
  0
SOLID
  5
4F6
  330
129
  100
AcDbEntity
  100
AcDbTrace
  8
0
 10
-1.562095
 20
-0.0127
 30
0.0
 11
1.562095
 21
-0.0127
 31
0.0
 12
-1.562095
 22
0.0127
 32
0.0
 13
1.562095
 23
0.0127
 33
0.0
  0
ENDBLK
  5
4F7
  330
129
  100
AcDbEntity
  100
AcDbBlockEnd
  0
BLOCK
  5
4F8
  330
163
  100
AcDbEntity
  100
AcDbBlockBegin
  8
0
  2
D313RECTANGLE3_25119X0_0254
 70
     0
 10
0.0
 20
0.0
 30
0.0
  0
SOLID
  5
4F9
  330
12A
  100
AcDbEntity
  100
AcDbTrace
  8
0
 10
-1.625595
 20
-0.0127
 30
0.0
 11
1.625595
 21
-0.0127
 31
0.0
 12
-1.625595
 22
0.0127
 32
0.0
 13
1.625595
 23
0.0127
 33
0.0
  0
ENDBLK
  5
4FA
  330
12A
  100
AcDbEntity
  100
AcDbBlockEnd
  0
BLOCK
  5
4FB
  330
163
  100
AcDbEntity
  100
AcDbBlockBegin
  8
0
  2
D314RECTANGLE3_09879X0_0254
 70
     0
 10
0.0
 20
0.0
 30
0.0
  0
SOLID
  5
4FC
  330
12B
  100
AcDbEntity
  100
AcDbTrace
  8
0
 10
-1.549395
 20
-0.0127
 30
0.0
 11
1.549395
 21
-0.0127
 31
0.0
 12
-1.549395
 22
0.0127
 32
0.0
 13
1.549395
 23
0.0127
 33
0.0
  0
ENDBLK
  5
4FD
  330
12B
  100
AcDbEntity
  100
AcDbBlockEnd
  0
BLOCK
  5
4FE
  330
163
  100
AcDbEntity
  100
AcDbBlockBegin
  8
0
  2
D315RECTANGLE3_07339X0_0254
 70
     0
 10
0.0
 20
0.0
 30
0.0
  0
SOLID
  5
4FF
  330
12C
  100
AcDbEntity
  100
AcDbTrace
  8
0
 10
-1.536695
 20
-0.0127
 30
0.0
 11
1.536695
 21
-0.0127
 31
0.0
 12
-1.536695
 22
0.0127
 32
0.0
 13
1.536695
 23
0.0127
 33
0.0
  0
ENDBLK
  5
500
  330
12C
  100
AcDbEntity
  100
AcDbBlockEnd
  0
BLOCK
  5
501
  330
163
  100
AcDbEntity
  100
AcDbBlockBegin
  8
0
  2
D316RECTANGLE3_04799X0_0254
 70
     0
 10
0.0
 20
0.0
 30
0.0
  0
SOLID
  5
502
  330
12D
  100
AcDbEntity
  100
AcDbTrace
  8
0
 10
-1.523995
 20
-0.0127
 30
0.0
 11
1.523995
 21
-0.0127
 31
0.0
 12
-1.523995
 22
0.0127
 32
0.0
 13
1.523995
 23
0.0127
 33
0.0
  0
ENDBLK
  5
503
  330
12D
  100
AcDbEntity
  100
AcDbBlockEnd
  0
BLOCK
  5
504
  330
163
  100
AcDbEntity
  100
AcDbBlockBegin
  8
0
  2
D317RECTANGLE3_02259X0_0254
 70
     0
 10
0.0
 20
0.0
 30
0.0
  0
SOLID
  5
505
  330
12E
  100
AcDbEntity
  100
AcDbTrace
  8
0
 10
-1.511295
 20
-0.0127
 30
0.0
 11
1.511295
 21
-0.0127
 31
0.0
 12
-1.511295
 22
0.0127
 32
0.0
 13
1.511295
 23
0.0127
 33
0.0
  0
ENDBLK
  5
506
  330
12E
  100
AcDbEntity
  100
AcDbBlockEnd
  0
BLOCK
  5
507
  330
163
  100
AcDbEntity
  100
AcDbBlockBegin
  8
0
  2
D318RECTANGLE2_99719X0_0254
 70
     0
 10
0.0
 20
0.0
 30
0.0
  0
SOLID
  5
508
  330
12F
  100
AcDbEntity
  100
AcDbTrace
  8
0
 10
-1.498595
 20
-0.0127
 30
0.0
 11
1.498595
 21
-0.0127
 31
0.0
 12
-1.498595
 22
0.0127
 32
0.0
 13
1.498595
 23
0.0127
 33
0.0
  0
ENDBLK
  5
509
  330
12F
  100
AcDbEntity
  100
AcDbBlockEnd
  0
BLOCK
  5
50A
  330
163
  100
AcDbEntity
  100
AcDbBlockBegin
  8
0
  2
D319RECTANGLE2_94639X0_0254
 70
     0
 10
0.0
 20
0.0
 30
0.0
  0
SOLID
  5
50B
  330
130
  100
AcDbEntity
  100
AcDbTrace
  8
0
 10
-1.473195
 20
-0.0127
 30
0.0
 11
1.473195
 21
-0.0127
 31
0.0
 12
-1.473195
 22
0.0127
 32
0.0
 13
1.473195
 23
0.0127
 33
0.0
  0
ENDBLK
  5
50C
  330
130
  100
AcDbEntity
  100
AcDbBlockEnd
  0
BLOCK
  5
50D
  330
163
  100
AcDbEntity
  100
AcDbBlockBegin
  8
0
  2
D320RECTANGLE2_92099X0_0254
 70
     0
 10
0.0
 20
0.0
 30
0.0
  0
SOLID
  5
50E
  330
131
  100
AcDbEntity
  100
AcDbTrace
  8
0
 10
-1.460495
 20
-0.0127
 30
0.0
 11
1.460495
 21
-0.0127
 31
0.0
 12
-1.460495
 22
0.0127
 32
0.0
 13
1.460495
 23
0.0127
 33
0.0
  0
ENDBLK
  5
50F
  330
131
  100
AcDbEntity
  100
AcDbBlockEnd
  0
BLOCK
  5
510
  330
163
  100
AcDbEntity
  100
AcDbBlockBegin
  8
0
  2
D321RECTANGLE2_87019X0_0254
 70
     0
 10
0.0
 20
0.0
 30
0.0
  0
SOLID
  5
511
  330
132
  100
AcDbEntity
  100
AcDbTrace
  8
0
 10
-1.435095
 20
-0.0127
 30
0.0
 11
1.435095
 21
-0.0127
 31
0.0
 12
-1.435095
 22
0.0127
 32
0.0
 13
1.435095
 23
0.0127
 33
0.0
  0
ENDBLK
  5
512
  330
132
  100
AcDbEntity
  100
AcDbBlockEnd
  0
BLOCK
  5
513
  330
163
  100
AcDbEntity
  100
AcDbBlockBegin
  8
0
  2
D322RECTANGLE2_97179X0_0254
 70
     0
 10
0.0
 20
0.0
 30
0.0
  0
SOLID
  5
514
  330
133
  100
AcDbEntity
  100
AcDbTrace
  8
0
 10
-1.485895
 20
-0.0127
 30
0.0
 11
1.485895
 21
-0.0127
 31
0.0
 12
-1.485895
 22
0.0127
 32
0.0
 13
1.485895
 23
0.0127
 33
0.0
  0
ENDBLK
  5
515
  330
133
  100
AcDbEntity
  100
AcDbBlockEnd
  0
BLOCK
  5
516
  330
163
  100
AcDbEntity
  100
AcDbBlockBegin
  8
0
  2
D323RECTANGLE2_81939X0_0254
 70
     0
 10
0.0
 20
0.0
 30
0.0
  0
SOLID
  5
517
  330
134
  100
AcDbEntity
  100
AcDbTrace
  8
0
 10
-1.409695
 20
-0.0127
 30
0.0
 11
1.409695
 21
-0.0127
 31
0.0
 12
-1.409695
 22
0.0127
 32
0.0
 13
1.409695
 23
0.0127
 33
0.0
  0
ENDBLK
  5
518
  330
134
  100
AcDbEntity
  100
AcDbBlockEnd
  0
BLOCK
  5
519
  330
163
  100
AcDbEntity
  100
AcDbBlockBegin
  8
0
  2
D324RECTANGLE2_7178X0_0254
 70
     0
 10
0.0
 20
0.0
 30
0.0
  0
SOLID
  5
51A
  330
135
  100
AcDbEntity
  100
AcDbTrace
  8
0
 10
-1.3589
 20
-0.0127
 30
0.0
 11
1.3589
 21
-0.0127
 31
0.0
 12
-1.3589
 22
0.0127
 32
0.0
 13
1.3589
 23
0.0127
 33
0.0
  0
ENDBLK
  5
51B
  330
135
  100
AcDbEntity
  100
AcDbBlockEnd
  0
BLOCK
  5
51C
  330
163
  100
AcDbEntity
  100
AcDbBlockBegin
  8
0
  2
D325RECTANGLE7_06119X0_0254
 70
     0
 10
0.0
 20
0.0
 30
0.0
  0
SOLID
  5
51D
  330
136
  100
AcDbEntity
  100
AcDbTrace
  8
0
 10
-3.530595
 20
-0.0127
 30
0.0
 11
3.530595
 21
-0.0127
 31
0.0
 12
-3.530595
 22
0.0127
 32
0.0
 13
3.530595
 23
0.0127
 33
0.0
  0
ENDBLK
  5
51E
  330
136
  100
AcDbEntity
  100
AcDbBlockEnd
  0
BLOCK
  5
51F
  330
163
  100
AcDbEntity
  100
AcDbBlockBegin
  8
0
  2
D326RECTANGLE2_1844X0_0254
 70
     0
 10
0.0
 20
0.0
 30
0.0
  0
SOLID
  5
520
  330
137
  100
AcDbEntity
  100
AcDbTrace
  8
0
 10
-1.0922
 20
-0.0127
 30
0.0
 11
1.0922
 21
-0.0127
 31
0.0
 12
-1.0922
 22
0.0127
 32
0.0
 13
1.0922
 23
0.0127
 33
0.0
  0
ENDBLK
  5
521
  330
137
  100
AcDbEntity
  100
AcDbBlockEnd
  0
BLOCK
  5
522
  330
163
  100
AcDbEntity
  100
AcDbBlockBegin
  8
0
  2
D327RECTANGLE1_9812X0_0254
 70
     0
 10
0.0
 20
0.0
 30
0.0
  0
SOLID
  5
523
  330
138
  100
AcDbEntity
  100
AcDbTrace
  8
0
 10
-0.9906
 20
-0.0127
 30
0.0
 11
0.9906
 21
-0.0127
 31
0.0
 12
-0.9906
 22
0.0127
 32
0.0
 13
0.9906
 23
0.0127
 33
0.0
  0
ENDBLK
  5
524
  330
138
  100
AcDbEntity
  100
AcDbBlockEnd
  0
BLOCK
  5
525
  330
163
  100
AcDbEntity
  100
AcDbBlockBegin
  8
0
  2
D328RECTANGLE1_8034X0_0254
 70
     0
 10
0.0
 20
0.0
 30
0.0
  0
SOLID
  5
526
  330
139
  100
AcDbEntity
  100
AcDbTrace
  8
0
 10
-0.901700
 20
-0.0127
 30
0.0
 11
0.901700
 21
-0.0127
 31
0.0
 12
-0.901700
 22
0.0127
 32
0.0
 13
0.901700
 23
0.0127
 33
0.0
  0
ENDBLK
  5
527
  330
139
  100
AcDbEntity
  100
AcDbBlockEnd
  0
BLOCK
  5
528
  330
163
  100
AcDbEntity
  100
AcDbBlockBegin
  8
0
  2
D329RECTANGLE1_4478X0_0254
 70
     0
 10
0.0
 20
0.0
 30
0.0
  0
SOLID
  5
529
  330
13A
  100
AcDbEntity
  100
AcDbTrace
  8
0
 10
-0.7239
 20
-0.0127
 30
0.0
 11
0.7239
 21
-0.0127
 31
0.0
 12
-0.7239
 22
0.0127
 32
0.0
 13
0.7239
 23
0.0127
 33
0.0
  0
ENDBLK
  5
52A
  330
13A
  100
AcDbEntity
  100
AcDbBlockEnd
  0
BLOCK
  5
52B
  330
163
  100
AcDbEntity
  100
AcDbBlockBegin
  8
0
  2
D330SQUARE1_7032X1_7032
 70
     0
 10
0.0
 20
0.0
 30
0.0
  0
SOLID
  5
52C
  330
13B
  100
AcDbEntity
  100
AcDbTrace
  8
0
 10
-0.8516
 20
-0.8516
 30
0.0
 11
0.8516
 21
-0.8516
 31
0.0
 12
-0.8516
 22
0.8516
 32
0.0
 13
0.8516
 23
0.8516
 33
0.0
  0
ENDBLK
  5
52D
  330
13B
  100
AcDbEntity
  100
AcDbBlockEnd
  0
BLOCK
  5
52E
  330
163
  100
AcDbEntity
  100
AcDbBlockBegin
  8
0
  2
D331ROUND1_4032X1_4032
 70
     0
 10
0.0
 20
0.0
 30
0.0
  0
CIRCLE
  5
52F
  330
13C
  100
AcDbEntity
  100
AcDbCircle
  8
0
 10
0.0
 20
0.0
 30
0.0
 40
0.701600
  0
ENDBLK
  5
530
  330
13C
  100
AcDbEntity
  100
AcDbBlockEnd
  0
BLOCK
  5
531
  330
163
  100
AcDbEntity
  100
AcDbBlockBegin
  8
0
  2
D332ROUND1_7272X1_7272
 70
     0
 10
0.0
 20
0.0
 30
0.0
  0
CIRCLE
  5
532
  330
13D
  100
AcDbEntity
  100
AcDbCircle
  8
0
 10
0.0
 20
0.0
 30
0.0
 40
0.863600
  0
ENDBLK
  5
533
  330
13D
  100
AcDbEntity
  100
AcDbBlockEnd
  0
BLOCK
  5
534
  330
163
  100
AcDbEntity
  100
AcDbBlockBegin
  8
0
  2
D333SQUARE1_7272X1_7272
 70
     0
 10
0.0
 20
0.0
 30
0.0
  0
SOLID
  5
535
  330
13E
  100
AcDbEntity
  100
AcDbTrace
  8
0
 10
-0.863600
 20
-0.863600
 30
0.0
 11
0.863600
 21
-0.863600
 31
0.0
 12
-0.863600
 22
0.863600
 32
0.0
 13
0.863600
 23
0.863600
 33
0.0
  0
ENDBLK
  5
536
  330
13E
  100
AcDbEntity
  100
AcDbBlockEnd
  0
BLOCK
  5
537
  330
163
  100
AcDbEntity
  100
AcDbBlockBegin
  8
0
  2
D334SQUARE1_4032X1_4032
 70
     0
 10
0.0
 20
0.0
 30
0.0
  0
SOLID
  5
538
  330
13F
  100
AcDbEntity
  100
AcDbTrace
  8
0
 10
-0.701600
 20
-0.701600
 30
0.0
 11
0.701600
 21
-0.701600
 31
0.0
 12
-0.701600
 22
0.701600
 32
0.0
 13
0.701600
 23
0.701600
 33
0.0
  0
ENDBLK
  5
539
  330
13F
  100
AcDbEntity
  100
AcDbBlockEnd
  0
BLOCK
  5
53A
  330
163
  100
AcDbEntity
  100
AcDbBlockBegin
  8
0
  2
D335ROUND1_7032X1_7032
 70
     0
 10
0.0
 20
0.0
 30
0.0
  0
CIRCLE
  5
53B
  330
140
  100
AcDbEntity
  100
AcDbCircle
  8
0
 10
0.0
 20
0.0
 30
0.0
 40
0.8516
  0
ENDBLK
  5
53C
  330
140
  100
AcDbEntity
  100
AcDbBlockEnd
  0
BLOCK
  5
53D
  330
163
  100
AcDbEntity
  100
AcDbBlockBegin
  8
0
  2
D336D3361_7018X1_7018
 70
     0
 10
0.0
 20
0.0
 30
0.0
  0
POLYLINE
  5
53E
  330
141
  100
AcDbEntity
  100
AcDb2dPolyline
  8
0
 66
     1
 10
0.0
 20
0.0
 30
0.0
 70
     1
  0
VERTEX
  5
53F
  330
141
  100
AcDbEntity
  100
AcDbVertex
  100
AcDb2dVertex
  8
0
 10
-0.8509
 20
-0.353060
 30
0.0
  0
VERTEX
  5
540
  330
141
  100
AcDbEntity
  100
AcDbVertex
  100
AcDb2dVertex
  8
0
 10
-0.353060
 20
-0.8509
 30
0.0
  0
VERTEX
  5
541
  330
141
  100
AcDbEntity
  100
AcDbVertex
  100
AcDb2dVertex
  8
0
 10
0.353060
 20
-0.8509
 30
0.0
  0
VERTEX
  5
542
  330
141
  100
AcDbEntity
  100
AcDbVertex
  100
AcDb2dVertex
  8
0
 10
0.8509
 20
-0.353060
 30
0.0
  0
VERTEX
  5
543
  330
141
  100
AcDbEntity
  100
AcDbVertex
  100
AcDb2dVertex
  8
0
 10
0.8509
 20
0.353060
 30
0.0
  0
VERTEX
  5
544
  330
141
  100
AcDbEntity
  100
AcDbVertex
  100
AcDb2dVertex
  8
0
 10
0.353060
 20
0.8509
 30
0.0
  0
VERTEX
  5
545
  330
141
  100
AcDbEntity
  100
AcDbVertex
  100
AcDb2dVertex
  8
0
 10
-0.353060
 20
0.8509
 30
0.0
  0
VERTEX
  5
546
  330
141
  100
AcDbEntity
  100
AcDbVertex
  100
AcDb2dVertex
  8
0
 10
-0.8509
 20
0.353060
 30
0.0
  0
SEQEND
  5
547
  330
141
  100
AcDbEntity
  8
0
  0
ENDBLK
  5
548
  330
141
  100
AcDbEntity
  100
AcDbBlockEnd
  0
BLOCK
  5
549
  330
163
  100
AcDbEntity
  100
AcDbBlockBegin
  8
0
  2
D337SQUARE1_7032X1_7032
 70
     0
 10
0.0
 20
0.0
 30
0.0
  0
SOLID
  5
54A
  330
142
  100
AcDbEntity
  100
AcDbTrace
  8
0
 10
-0.8516
 20
-0.8516
 30
0.0
 11
0.8516
 21
-0.8516
 31
0.0
 12
-0.8516
 22
0.8516
 32
0.0
 13
0.8516
 23
0.8516
 33
0.0
  0
ENDBLK
  5
54B
  330
142
  100
AcDbEntity
  100
AcDbBlockEnd
  0
BLOCK
  5
54C
  330
163
  100
AcDbEntity
  100
AcDbBlockBegin
  8
0
  2
D338ROUND1_7032X1_7032
 70
     0
 10
0.0
 20
0.0
 30
0.0
  0
CIRCLE
  5
54D
  330
143
  100
AcDbEntity
  100
AcDbCircle
  8
0
 10
0.0
 20
0.0
 30
0.0
 40
0.8516
  0
ENDBLK
  5
54E
  330
143
  100
AcDbEntity
  100
AcDbBlockEnd
  0
BLOCK
  5
54F
  330
163
  100
AcDbEntity
  100
AcDbBlockBegin
  8
0
  2
D339D3391_60528X1_60528
 70
     0
 10
0.0
 20
0.0
 30
0.0
  0
POLYLINE
  5
550
  330
144
  100
AcDbEntity
  100
AcDb2dPolyline
  8
0
 66
     1
 10
0.0
 20
0.0
 30
0.0
 70
     1
  0
VERTEX
  5
551
  330
144
  100
AcDbEntity
  100
AcDbVertex
  100
AcDb2dVertex
  8
0
 10
-0.33274
 20
0.802640
 30
0.0
  0
VERTEX
  5
552
  330
144
  100
AcDbEntity
  100
AcDbVertex
  100
AcDb2dVertex
  8
0
 10
-0.802640
 20
0.33274
 30
0.0
  0
VERTEX
  5
553
  330
144
  100
AcDbEntity
  100
AcDbVertex
  100
AcDb2dVertex
  8
0
 10
-0.802640
 20
-0.33274
 30
0.0
  0
VERTEX
  5
554
  330
144
  100
AcDbEntity
  100
AcDbVertex
  100
AcDb2dVertex
  8
0
 10
-0.33274
 20
-0.802640
 30
0.0
  0
VERTEX
  5
555
  330
144
  100
AcDbEntity
  100
AcDbVertex
  100
AcDb2dVertex
  8
0
 10
0.33274
 20
-0.802640
 30
0.0
  0
VERTEX
  5
556
  330
144
  100
AcDbEntity
  100
AcDbVertex
  100
AcDb2dVertex
  8
0
 10
0.802640
 20
-0.33274
 30
0.0
  0
VERTEX
  5
557
  330
144
  100
AcDbEntity
  100
AcDbVertex
  100
AcDb2dVertex
  8
0
 10
0.802640
 20
0.33274
 30
0.0
  0
VERTEX
  5
558
  330
144
  100
AcDbEntity
  100
AcDbVertex
  100
AcDb2dVertex
  8
0
 10
0.33274
 20
0.802640
 30
0.0
  0
SEQEND
  5
559
  330
144
  100
AcDbEntity
  8
0
  0
ENDBLK
  5
55A
  330
144
  100
AcDbEntity
  100
AcDbBlockEnd
  0
BLOCK
  5
55B
  330
163
  100
AcDbEntity
  100
AcDbBlockBegin
  8
0
  2
D340ROUND1_6032X1_6032
 70
     0
 10
0.0
 20
0.0
 30
0.0
  0
CIRCLE
  5
55C
  330
145
  100
AcDbEntity
  100
AcDbCircle
  8
0
 10
0.0
 20
0.0
 30
0.0
 40
0.801600
  0
ENDBLK
  5
55D
  330
145
  100
AcDbEntity
  100
AcDbBlockEnd
  0
BLOCK
  5
55E
  330
163
  100
AcDbEntity
  100
AcDbBlockBegin
  8
0
  2
D341ROUND3_70319X3_70319
 70
     0
 10
0.0
 20
0.0
 30
0.0
  0
CIRCLE
  5
55F
  330
146
  100
AcDbEntity
  100
AcDbCircle
  8
0
 10
0.0
 20
0.0
 30
0.0
 40
1.851595
  0
ENDBLK
  5
560
  330
146
  100
AcDbEntity
  100
AcDbBlockEnd
  0
BLOCK
  5
561
  330
163
  100
AcDbEntity
  100
AcDbBlockBegin
  8
0
  2
D342ROUND2_7032X2_7032
 70
     0
 10
0.0
 20
0.0
 30
0.0
  0
CIRCLE
  5
562
  330
147
  100
AcDbEntity
  100
AcDbCircle
  8
0
 10
0.0
 20
0.0
 30
0.0
 40
1.351600
  0
ENDBLK
  5
563
  330
147
  100
AcDbEntity
  100
AcDbBlockEnd
  0
BLOCK
  5
564
  330
163
  100
AcDbEntity
  100
AcDbBlockBegin
  8
0
  2
D343SQUARE2_7032X2_7032
 70
     0
 10
0.0
 20
0.0
 30
0.0
  0
SOLID
  5
565
  330
148
  100
AcDbEntity
  100
AcDbTrace
  8
0
 10
-1.351600
 20
-1.351600
 30
0.0
 11
1.351600
 21
-1.351600
 31
0.0
 12
-1.351600
 22
1.351600
 32
0.0
 13
1.351600
 23
1.351600
 33
0.0
  0
ENDBLK
  5
566
  330
148
  100
AcDbEntity
  100
AcDbBlockEnd
  0
BLOCK
  5
567
  330
163
  100
AcDbEntity
  100
AcDbBlockBegin
  8
0
  2
D344SQUARE1_4032X1_4032
 70
     0
 10
0.0
 20
0.0
 30
0.0
  0
SOLID
  5
568
  330
149
  100
AcDbEntity
  100
AcDbTrace
  8
0
 10
-0.701600
 20
-0.701600
 30
0.0
 11
0.701600
 21
-0.701600
 31
0.0
 12
-0.701600
 22
0.701600
 32
0.0
 13
0.701600
 23
0.701600
 33
0.0
  0
ENDBLK
  5
569
  330
149
  100
AcDbEntity
  100
AcDbBlockEnd
  0
BLOCK
  5
56A
  330
163
  100
AcDbEntity
  100
AcDbBlockBegin
  8
0
  2
D345SQUARE1_7032X1_7032
 70
     0
 10
0.0
 20
0.0
 30
0.0
  0
SOLID
  5
56B
  330
14A
  100
AcDbEntity
  100
AcDbTrace
  8
0
 10
-0.8516
 20
-0.8516
 30
0.0
 11
0.8516
 21
-0.8516
 31
0.0
 12
-0.8516
 22
0.8516
 32
0.0
 13
0.8516
 23
0.8516
 33
0.0
  0
ENDBLK
  5
56C
  330
14A
  100
AcDbEntity
  100
AcDbBlockEnd
  0
BLOCK
  5
56D
  330
163
  100
AcDbEntity
  100
AcDbBlockBegin
  8
0
  2
D346SQUARE1_7272X1_7272
 70
     0
 10
0.0
 20
0.0
 30
0.0
  0
SOLID
  5
56E
  330
14B
  100
AcDbEntity
  100
AcDbTrace
  8
0
 10
-0.863600
 20
-0.863600
 30
0.0
 11
0.863600
 21
-0.863600
 31
0.0
 12
-0.863600
 22
0.863600
 32
0.0
 13
0.863600
 23
0.863600
 33
0.0
  0
ENDBLK
  5
56F
  330
14B
  100
AcDbEntity
  100
AcDbBlockEnd
  0
BLOCK
  5
570
  330
163
  100
AcDbEntity
  100
AcDbBlockBegin
  8
0
  2
D347ROUND3_37819X3_37819
 70
     0
 10
0.0
 20
0.0
 30
0.0
  0
CIRCLE
  5
571
  330
14C
  100
AcDbEntity
  100
AcDbCircle
  8
0
 10
0.0
 20
0.0
 30
0.0
 40
1.689095
  0
ENDBLK
  5
572
  330
14C
  100
AcDbEntity
  100
AcDbBlockEnd
  0
BLOCK
  5
573
  330
163
  100
AcDbEntity
  100
AcDbBlockBegin
  8
0
  2
D348ROUND1_4732X1_4732
 70
     0
 10
0.0
 20
0.0
 30
0.0
  0
CIRCLE
  5
574
  330
14D
  100
AcDbEntity
  100
AcDbCircle
  8
0
 10
0.0
 20
0.0
 30
0.0
 40
0.736600
  0
ENDBLK
  5
575
  330
14D
  100
AcDbEntity
  100
AcDbBlockEnd
  0
BLOCK
  5
576
  330
163
  100
AcDbEntity
  100
AcDbBlockBegin
  8
0
  2
D99RECTANGLE1_93X1_204
 70
     0
 10
0.0
 20
0.0
 30
0.0
  0
SOLID
  5
577
  330
14E
  100
AcDbEntity
  100
AcDbTrace
  8
0
 10
-0.965
 20
-0.602
 30
0.0
 11
0.965
 21
-0.602
 31
0.0
 12
-0.965
 22
0.602
 32
0.0
 13
0.965
 23
0.602
 33
0.0
  0
ENDBLK
  5
578
  330
14E
  100
AcDbEntity
  100
AcDbBlockEnd
  0
ENDSEC
  0
SECTION
  2
ENTITIES
  0
INSERT
  5
579
  330
163
  100
AcDbEntity
  100
AcDbBlockReference
  8
7_SAL
  2
D330SQUARE1_7032X1_7032
 10
25.189000
 20
33.809
 30
0.0
  0
INSERT
  5
57A
  330
163
  100
AcDbEntity
  100
AcDbBlockReference
  8
7_SAL
  2
D330SQUARE1_7032X1_7032
 10
28.999
 20
37.499
 30
0.0
  0
INSERT
  5
57B
  330
163
  100
AcDbEntity
  100
AcDbBlockReference
  8
7_SAL
  2
D330SQUARE1_7032X1_7032
 10
21.999000
 20
47.999
 30
0.0
  0
INSERT
  5
57C
  330
163
  100
AcDbEntity
  100
AcDbBlockReference
  8
7_SAL
  2
D330SQUARE1_7032X1_7032
 10
21.999000
 20
52.999
 30
0.0
  0
INSERT
  5
57D
  330
163
  100
AcDbEntity
  100
AcDbBlockReference
  8
7_SAL
  2
D330SQUARE1_7032X1_7032
 10
13.999
 20
52.999
 30
0.0
  0
INSERT
  5
57E
  330
163
  100
AcDbEntity
  100
AcDbBlockReference
  8
7_SAL
  2
D330SQUARE1_7032X1_7032
 10
13.999
 20
47.999
 30
0.0
  0
INSERT
  5
57F
  330
163
  100
AcDbEntity
  100
AcDbBlockReference
  8
7_SAL
  2
D331ROUND1_4032X1_4032
 10
1.399
 20
14.999
 30
0.0
  0
INSERT
  5
580
  330
163
  100
AcDbEntity
  100
AcDbBlockReference
  8
7_SAL
  2
D331ROUND1_4032X1_4032
 10
8.999
 20
14.999
 30
0.0
  0
INSERT
  5
581
  330
163
  100
AcDbEntity
  100
AcDbBlockReference
  8
7_SAL
  2
D331ROUND1_4032X1_4032
 10
8.849
 20
23.999000
 30
0.0
  0
INSERT
  5
582
  330
163
  100
AcDbEntity
  100
AcDbBlockReference
  8
7_SAL
  2
D331ROUND1_4032X1_4032
 10
1.249
 20
23.999000
 30
0.0
  0
INSERT
  5
583
  330
163
  100
AcDbEntity
  100
AcDbBlockReference
  8
7_SAL
  2
D331ROUND1_4032X1_4032
 10
10.119
 20
7.919
 30
0.0
  0
INSERT
  5
584
  330
163
  100
AcDbEntity
  100
AcDbBlockReference
  8
7_SAL
  2
D331ROUND1_4032X1_4032
 10
12.859
 20
7.919
 30
0.0
  0
INSERT
  5
585
  330
163
  100
AcDbEntity
  100
AcDbBlockReference
  8
7_SAL
  2
D331ROUND1_4032X1_4032
 10
11.489
 20
5.079
 30
0.0
  0
INSERT
  5
586
  330
163
  100
AcDbEntity
  100
AcDbBlockReference
  8
7_SAL
  2
D331ROUND1_4032X1_4032
 10
14.229000
 20
5.079
 30
0.0
  0
INSERT
  5
587
  330
163
  100
AcDbEntity
  100
AcDbBlockReference
  8
7_SAL
  2
D331ROUND1_4032X1_4032
 10
15.599
 20
7.919
 30
0.0
  0
INSERT
  5
588
  330
163
  100
AcDbEntity
  100
AcDbBlockReference
  8
7_SAL
  2
D331ROUND1_4032X1_4032
 10
18.339
 20
7.919
 30
0.0
  0
INSERT
  5
589
  330
163
  100
AcDbEntity
  100
AcDbBlockReference
  8
7_SAL
  2
D331ROUND1_4032X1_4032
 10
19.709
 20
5.079
 30
0.0
  0
INSERT
  5
58A
  330
163
  100
AcDbEntity
  100
AcDbBlockReference
  8
7_SAL
  2
D331ROUND1_4032X1_4032
 10
16.969
 20
5.079
 30
0.0
  0
INSERT
  5
58B
  330
163
  100
AcDbEntity
  100
AcDbBlockReference
  8
7_SAL
  2
D331ROUND1_4032X1_4032
 10
21.379
 20
7.919
 30
0.0
  0
INSERT
  5
58C
  330
163
  100
AcDbEntity
  100
AcDbBlockReference
  8
7_SAL
  2
D331ROUND1_4032X1_4032
 10
21.999000
 20
15.999
 30
0.0
  0
INSERT
  5
58D
  330
163
  100
AcDbEntity
  100
AcDbBlockReference
  8
7_SAL
  2
D331ROUND1_4032X1_4032
 10
21.999000
 20
23.599
 30
0.0
  0
INSERT
  5
58E
  330
163
  100
AcDbEntity
  100
AcDbBlockReference
  8
7_SAL
  2
D331ROUND1_4032X1_4032
 10
21.999000
 20
27.999
 30
0.0
  0
INSERT
  5
58F
  330
163
  100
AcDbEntity
  100
AcDbBlockReference
  8
7_SAL
  2
D331ROUND1_4032X1_4032
 10
21.999000
 20
35.599
 30
0.0
  0
INSERT
  5
590
  330
163
  100
AcDbEntity
  100
AcDbBlockReference
  8
7_SAL
  2
D331ROUND1_4032X1_4032
 10
34.999
 20
30.999
 30
0.0
  0
INSERT
  5
591
  330
163
  100
AcDbEntity
  100
AcDbBlockReference
  8
7_SAL
  2
D331ROUND1_4032X1_4032
 10
36.999
 20
25.599
 30
0.0
  0
INSERT
  5
592
  330
163
  100
AcDbEntity
  100
AcDbBlockReference
  8
7_SAL
  2
D331ROUND1_4032X1_4032
 10
41.999
 20
25.599
 30
0.0
  0
INSERT
  5
593
  330
163
  100
AcDbEntity
  100
AcDbBlockReference
  8
7_SAL
  2
D331ROUND1_4032X1_4032
 10
36.999
 20
17.999
 30
0.0
  0
INSERT
  5
594
  330
163
  100
AcDbEntity
  100
AcDbBlockReference
  8
7_SAL
  2
D331ROUND1_4032X1_4032
 10
41.999
 20
17.999
 30
0.0
  0
INSERT
  5
595
  330
163
  100
AcDbEntity
  100
AcDbBlockReference
  8
7_SAL
  2
D331ROUND1_4032X1_4032
 10
39.249
 20
10.999
 30
0.0
  0
INSERT
  5
596
  330
163
  100
AcDbEntity
  100
AcDbBlockReference
  8
7_SAL
  2
D331ROUND1_4032X1_4032
 10
39.249
 20
0.999
 30
0.0
  0
INSERT
  5
597
  330
163
  100
AcDbEntity
  100
AcDbBlockReference
  8
7_SAL
  2
D331ROUND1_4032X1_4032
 10
50.999
 20
15.499
 30
0.0
  0
INSERT
  5
598
  330
163
  100
AcDbEntity
  100
AcDbBlockReference
  8
7_SAL
  2
D331ROUND1_4032X1_4032
 10
58.499
 20
23.999000
 30
0.0
  0
INSERT
  5
599
  330
163
  100
AcDbEntity
  100
AcDbBlockReference
  8
7_SAL
  2
D331ROUND1_4032X1_4032
 10
58.999
 20
34.999
 30
0.0
  0
INSERT
  5
59A
  330
163
  100
AcDbEntity
  100
AcDbBlockReference
  8
7_SAL
  2
D331ROUND1_4032X1_4032
 10
58.999
 20
40.999
 30
0.0
  0
INSERT
  5
59B
  330
163
  100
AcDbEntity
  100
AcDbBlockReference
  8
7_SAL
  2
D331ROUND1_4032X1_4032
 10
53.999
 20
40.499
 30
0.0
  0
INSERT
  5
59C
  330
163
  100
AcDbEntity
  100
AcDbBlockReference
  8
7_SAL
  2
D331ROUND1_4032X1_4032
 10
54.099
 20
37.499
 30
0.0
  0
INSERT
  5
59D
  330
163
  100
AcDbEntity
  100
AcDbBlockReference
  8
7_SAL
  2
D331ROUND1_4032X1_4032
 10
54.099
 20
34.499
 30
0.0
  0
INSERT
  5
59E
  330
163
  100
AcDbEntity
  100
AcDbBlockReference
  8
7_SAL
  2
D331ROUND1_4032X1_4032
 10
46.399
 20
40.499
 30
0.0
  0
INSERT
  5
59F
  330
163
  100
AcDbEntity
  100
AcDbBlockReference
  8
7_SAL
  2
D331ROUND1_4032X1_4032
 10
46.499
 20
37.499
 30
0.0
  0
INSERT
  5
5A0
  330
163
  100
AcDbEntity
  100
AcDbBlockReference
  8
7_SAL
  2
D331ROUND1_4032X1_4032
 10
46.499
 20
34.499
 30
0.0
  0
INSERT
  5
5A1
  330
163
  100
AcDbEntity
  100
AcDbBlockReference
  8
7_SAL
  2
D331ROUND1_4032X1_4032
 10
42.599
 20
40.499
 30
0.0
  0
INSERT
  5
5A2
  330
163
  100
AcDbEntity
  100
AcDbBlockReference
  8
7_SAL
  2
D331ROUND1_4032X1_4032
 10
42.399
 20
46.999
 30
0.0
  0
INSERT
  5
5A3
  330
163
  100
AcDbEntity
  100
AcDbBlockReference
  8
7_SAL
  2
D331ROUND1_4032X1_4032
 10
42.399
 20
50.499
 30
0.0
  0
INSERT
  5
5A4
  330
163
  100
AcDbEntity
  100
AcDbBlockReference
  8
7_SAL
  2
D331ROUND1_4032X1_4032
 10
42.399
 20
53.999
 30
0.0
  0
INSERT
  5
5A5
  330
163
  100
AcDbEntity
  100
AcDbBlockReference
  8
7_SAL
  2
D331ROUND1_4032X1_4032
 10
35.999
 20
54.249
 30
0.0
  0
INSERT
  5
5A6
  330
163
  100
AcDbEntity
  100
AcDbBlockReference
  8
7_SAL
  2
D331ROUND1_4032X1_4032
 10
35.999
 20
46.649
 30
0.0
  0
INSERT
  5
5A7
  330
163
  100
AcDbEntity
  100
AcDbBlockReference
  8
7_SAL
  2
D331ROUND1_4032X1_4032
 10
34.999
 20
40.499
 30
0.0
  0
INSERT
  5
5A8
  330
163
  100
AcDbEntity
  100
AcDbBlockReference
  8
7_SAL
  2
D331ROUND1_4032X1_4032
 10
42.599
 20
30.999
 30
0.0
  0
INSERT
  5
5A9
  330
163
  100
AcDbEntity
  100
AcDbBlockReference
  8
7_SAL
  2
D331ROUND1_4032X1_4032
 10
49.999
 20
46.999
 30
0.0
  0
INSERT
  5
5AA
  330
163
  100
AcDbEntity
  100
AcDbBlockReference
  8
7_SAL
  2
D331ROUND1_4032X1_4032
 10
49.999
 20
50.499
 30
0.0
  0
INSERT
  5
5AB
  330
163
  100
AcDbEntity
  100
AcDbBlockReference
  8
7_SAL
  2
D331ROUND1_4032X1_4032
 10
49.999
 20
53.999
 30
0.0
  0
INSERT
  5
5AC
  330
163
  100
AcDbEntity
  100
AcDbBlockReference
  8
7_SAL
  2
D331ROUND1_4032X1_4032
 10
46.999
 20
68.999
 30
0.0
  0
INSERT
  5
5AD
  330
163
  100
AcDbEntity
  100
AcDbBlockReference
  8
7_SAL
  2
D331ROUND1_4032X1_4032
 10
46.999
 20
74.999
 30
0.0
  0
INSERT
  5
5AE
  330
163
  100
AcDbEntity
  100
AcDbBlockReference
  8
7_SAL
  2
D331ROUND1_4032X1_4032
 10
48.999
 20
74.999
 30
0.0
  0
INSERT
  5
5AF
  330
163
  100
AcDbEntity
  100
AcDbBlockReference
  8
7_SAL
  2
D331ROUND1_4032X1_4032
 10
36.999
 20
74.999
 30
0.0
  0
INSERT
  5
5B0
  330
163
  100
AcDbEntity
  100
AcDbBlockReference
  8
7_SAL
  2
D331ROUND1_4032X1_4032
 10
34.999
 20
74.999
 30
0.0
  0
INSERT
  5
5B1
  330
163
  100
AcDbEntity
  100
AcDbBlockReference
  8
7_SAL
  2
D331ROUND1_4032X1_4032
 10
24.999000
 20
74.999
 30
0.0
  0
INSERT
  5
5B2
  330
163
  100
AcDbEntity
  100
AcDbBlockReference
  8
7_SAL
  2
D331ROUND1_4032X1_4032
 10
22.999000
 20
74.999
 30
0.0
  0
INSERT
  5
5B3
  330
163
  100
AcDbEntity
  100
AcDbBlockReference
  8
7_SAL
  2
D331ROUND1_4032X1_4032
 10
18.999
 20
68.999
 30
0.0
  0
INSERT
  5
5B4
  330
163
  100
AcDbEntity
  100
AcDbBlockReference
  8
7_SAL
  2
D331ROUND1_4032X1_4032
 10
12.999
 20
74.999
 30
0.0
  0
INSERT
  5
5B5
  330
163
  100
AcDbEntity
  100
AcDbBlockReference
  8
7_SAL
  2
D331ROUND1_4032X1_4032
 10
10.999
 20
74.999
 30
0.0
  0
INSERT
  5
5B6
  330
163
  100
AcDbEntity
  100
AcDbBlockReference
  8
7_SAL
  2
D331ROUND1_4032X1_4032
 10
1.499
 20
50.999
 30
0.0
  0
INSERT
  5
5B7
  330
163
  100
AcDbEntity
  100
AcDbBlockReference
  8
7_SAL
  2
D331ROUND1_4032X1_4032
 10
1.499
 20
43.399
 30
0.0
  0
INSERT
  5
5B8
  330
163
  100
AcDbEntity
  100
AcDbBlockReference
  8
7_SAL
  2
D332ROUND1_7272X1_7272
 10
26.459000
 20
20.269
 30
0.0
  0
INSERT
  5
5B9
  330
163
  100
AcDbEntity
  100
AcDbBlockReference
  8
7_SAL
  2
D332ROUND1_7272X1_7272
 10
28.999
 20
20.269
 30
0.0
  0
INSERT
  5
5BA
  330
163
  100
AcDbEntity
  100
AcDbBlockReference
  8
7_SAL
  2
D332ROUND1_7272X1_7272
 10
28.999
 20
17.729
 30
0.0
  0
INSERT
  5
5BB
  330
163
  100
AcDbEntity
  100
AcDbBlockReference
  8
7_SAL
  2
D332ROUND1_7272X1_7272
 10
31.539000
 20
17.729
 30
0.0
  0
INSERT
  5
5BC
  330
163
  100
AcDbEntity
  100
AcDbBlockReference
  8
7_SAL
  2
D332ROUND1_7272X1_7272
 10
31.539000
 20
20.269
 30
0.0
  0
INSERT
  5
5BD
  330
163
  100
AcDbEntity
  100
AcDbBlockReference
  8
7_SAL
  2
D332ROUND1_7272X1_7272
 10
34.999
 20
9.039
 30
0.0
  0
INSERT
  5
5BE
  330
163
  100
AcDbEntity
  100
AcDbBlockReference
  8
7_SAL
  2
D332ROUND1_7272X1_7272
 10
34.999
 20
6.499
 30
0.0
  0
INSERT
  5
5BF
  330
163
  100
AcDbEntity
  100
AcDbBlockReference
  8
7_SAL
  2
D332ROUND1_7272X1_7272
 10
34.999
 20
3.959
 30
0.0
  0
INSERT
  5
5C0
  330
163
  100
AcDbEntity
  100
AcDbBlockReference
  8
7_SAL
  2
D332ROUND1_7272X1_7272
 10
34.999
 20
1.419
 30
0.0
  0
INSERT
  5
5C1
  330
163
  100
AcDbEntity
  100
AcDbBlockReference
  8
7_SAL
  2
D332ROUND1_7272X1_7272
 10
60.499
 20
55.459000
 30
0.0
  0
INSERT
  5
5C2
  330
163
  100
AcDbEntity
  100
AcDbBlockReference
  8
7_SAL
  2
D332ROUND1_7272X1_7272
 10
60.499
 20
57.999
 30
0.0
  0
INSERT
  5
5C3
  330
163
  100
AcDbEntity
  100
AcDbBlockReference
  8
7_SAL
  2
D332ROUND1_7272X1_7272
 10
55.129
 20
63.669
 30
0.0
  0
INSERT
  5
5C4
  330
163
  100
AcDbEntity
  100
AcDbBlockReference
  8
7_SAL
  2
D332ROUND1_7272X1_7272
 10
52.589
 20
63.669
 30
0.0
  0
INSERT
  5
5C5
  330
163
  100
AcDbEntity
  100
AcDbBlockReference
  8
7_SAL
  2
D332ROUND1_7272X1_7272
 10
52.589
 20
61.129
 30
0.0
  0
INSERT
  5
5C6
  330
163
  100
AcDbEntity
  100
AcDbBlockReference
  8
7_SAL
  2
D332ROUND1_7272X1_7272
 10
55.129
 20
61.129
 30
0.0
  0
INSERT
  5
5C7
  330
163
  100
AcDbEntity
  100
AcDbBlockReference
  8
7_SAL
  2
D332ROUND1_7272X1_7272
 10
50.049
 20
63.669
 30
0.0
  0
INSERT
  5
5C8
  330
163
  100
AcDbEntity
  100
AcDbBlockReference
  8
7_SAL
  2
D332ROUND1_7272X1_7272
 10
50.049
 20
61.129
 30
0.0
  0
INSERT
  5
5C9
  330
163
  100
AcDbEntity
  100
AcDbBlockReference
  8
7_SAL
  2
D332ROUND1_7272X1_7272
 10
47.509000
 20
63.669
 30
0.0
  0
INSERT
  5
5CA
  330
163
  100
AcDbEntity
  100
AcDbBlockReference
  8
7_SAL
  2
D332ROUND1_7272X1_7272
 10
47.509000
 20
61.129
 30
0.0
  0
INSERT
  5
5CB
  330
163
  100
AcDbEntity
  100
AcDbBlockReference
  8
7_SAL
  2
D332ROUND1_7272X1_7272
 10
44.969
 20
63.669
 30
0.0
  0
INSERT
  5
5CC
  330
163
  100
AcDbEntity
  100
AcDbBlockReference
  8
7_SAL
  2
D332ROUND1_7272X1_7272
 10
44.969
 20
61.129
 30
0.0
  0
INSERT
  5
5CD
  330
163
  100
AcDbEntity
  100
AcDbBlockReference
  8
7_SAL
  2
D332ROUND1_7272X1_7272
 10
42.429000
 20
63.669
 30
0.0
  0
INSERT
  5
5CE
  330
163
  100
AcDbEntity
  100
AcDbBlockReference
  8
7_SAL
  2
D332ROUND1_7272X1_7272
 10
39.889000
 20
63.669
 30
0.0
  0
INSERT
  5
5CF
  330
163
  100
AcDbEntity
  100
AcDbBlockReference
  8
7_SAL
  2
D332ROUND1_7272X1_7272
 10
39.889000
 20
61.129
 30
0.0
  0
INSERT
  5
5D0
  330
163
  100
AcDbEntity
  100
AcDbBlockReference
  8
7_SAL
  2
D332ROUND1_7272X1_7272
 10
42.429000
 20
61.129
 30
0.0
  0
INSERT
  5
5D1
  330
163
  100
AcDbEntity
  100
AcDbBlockReference
  8
7_SAL
  2
D332ROUND1_7272X1_7272
 10
37.349
 20
63.669
 30
0.0
  0
INSERT
  5
5D2
  330
163
  100
AcDbEntity
  100
AcDbBlockReference
  8
7_SAL
  2
D332ROUND1_7272X1_7272
 10
37.349
 20
61.129
 30
0.0
  0
INSERT
  5
5D3
  330
163
  100
AcDbEntity
  100
AcDbBlockReference
  8
7_SAL
  2
D332ROUND1_7272X1_7272
 10
34.809
 20
63.669
 30
0.0
  0
INSERT
  5
5D4
  330
163
  100
AcDbEntity
  100
AcDbBlockReference
  8
7_SAL
  2
D332ROUND1_7272X1_7272
 10
34.809
 20
61.129
 30
0.0
  0
INSERT
  5
5D5
  330
163
  100
AcDbEntity
  100
AcDbBlockReference
  8
7_SAL
  2
D332ROUND1_7272X1_7272
 10
32.269
 20
63.669
 30
0.0
  0
INSERT
  5
5D6
  330
163
  100
AcDbEntity
  100
AcDbBlockReference
  8
7_SAL
  2
D332ROUND1_7272X1_7272
 10
32.269
 20
61.129
 30
0.0
  0
INSERT
  5
5D7
  330
163
  100
AcDbEntity
  100
AcDbBlockReference
  8
7_SAL
  2
D332ROUND1_7272X1_7272
 10
29.729000
 20
63.669
 30
0.0
  0
INSERT
  5
5D8
  330
163
  100
AcDbEntity
  100
AcDbBlockReference
  8
7_SAL
  2
D332ROUND1_7272X1_7272
 10
27.189000
 20
63.669
 30
0.0
  0
INSERT
  5
5D9
  330
163
  100
AcDbEntity
  100
AcDbBlockReference
  8
7_SAL
  2
D332ROUND1_7272X1_7272
 10
27.189000
 20
61.129
 30
0.0
  0
INSERT
  5
5DA
  330
163
  100
AcDbEntity
  100
AcDbBlockReference
  8
7_SAL
  2
D332ROUND1_7272X1_7272
 10
29.729000
 20
61.129
 30
0.0
  0
INSERT
  5
5DB
  330
163
  100
AcDbEntity
  100
AcDbBlockReference
  8
7_SAL
  2
D332ROUND1_7272X1_7272
 10
24.649
 20
63.669
 30
0.0
  0
INSERT
  5
5DC
  330
163
  100
AcDbEntity
  100
AcDbBlockReference
  8
7_SAL
  2
D332ROUND1_7272X1_7272
 10
24.649
 20
61.129
 30
0.0
  0
INSERT
  5
5DD
  330
163
  100
AcDbEntity
  100
AcDbBlockReference
  8
7_SAL
  2
D332ROUND1_7272X1_7272
 10
22.109000
 20
63.669
 30
0.0
  0
INSERT
  5
5DE
  330
163
  100
AcDbEntity
  100
AcDbBlockReference
  8
7_SAL
  2
D332ROUND1_7272X1_7272
 10
22.109000
 20
61.129
 30
0.0
  0
INSERT
  5
5DF
  330
163
  100
AcDbEntity
  100
AcDbBlockReference
  8
7_SAL
  2
D332ROUND1_7272X1_7272
 10
19.569
 20
63.669
 30
0.0
  0
INSERT
  5
5E0
  330
163
  100
AcDbEntity
  100
AcDbBlockReference
  8
7_SAL
  2
D332ROUND1_7272X1_7272
 10
17.029
 20
63.669
 30
0.0
  0
INSERT
  5
5E1
  330
163
  100
AcDbEntity
  100
AcDbBlockReference
  8
7_SAL
  2
D332ROUND1_7272X1_7272
 10
17.029
 20
61.129
 30
0.0
  0
INSERT
  5
5E2
  330
163
  100
AcDbEntity
  100
AcDbBlockReference
  8
7_SAL
  2
D332ROUND1_7272X1_7272
 10
19.569
 20
61.129
 30
0.0
  0
INSERT
  5
5E3
  330
163
  100
AcDbEntity
  100
AcDbBlockReference
  8
7_SAL
  2
D332ROUND1_7272X1_7272
 10
14.489
 20
63.669
 30
0.0
  0
INSERT
  5
5E4
  330
163
  100
AcDbEntity
  100
AcDbBlockReference
  8
7_SAL
  2
D332ROUND1_7272X1_7272
 10
14.489
 20
61.129
 30
0.0
  0
INSERT
  5
5E5
  330
163
  100
AcDbEntity
  100
AcDbBlockReference
  8
7_SAL
  2
D332ROUND1_7272X1_7272
 10
11.949000
 20
63.669
 30
0.0
  0
INSERT
  5
5E6
  330
163
  100
AcDbEntity
  100
AcDbBlockReference
  8
7_SAL
  2
D332ROUND1_7272X1_7272
 10
11.949000
 20
61.129
 30
0.0
  0
INSERT
  5
5E7
  330
163
  100
AcDbEntity
  100
AcDbBlockReference
  8
7_SAL
  2
D332ROUND1_7272X1_7272
 10
9.409
 20
63.669
 30
0.0
  0
INSERT
  5
5E8
  330
163
  100
AcDbEntity
  100
AcDbBlockReference
  8
7_SAL
  2
D332ROUND1_7272X1_7272
 10
9.409
 20
61.129
 30
0.0
  0
INSERT
  5
5E9
  330
163
  100
AcDbEntity
  100
AcDbBlockReference
  8
7_SAL
  2
D332ROUND1_7272X1_7272
 10
6.869
 20
63.669
 30
0.0
  0
INSERT
  5
5EA
  330
163
  100
AcDbEntity
  100
AcDbBlockReference
  8
7_SAL
  2
D332ROUND1_7272X1_7272
 10
1.499
 20
57.999
 30
0.0
  0
INSERT
  5
5EB
  330
163
  100
AcDbEntity
  100
AcDbBlockReference
  8
7_SAL
  2
D332ROUND1_7272X1_7272
 10
1.499
 20
55.459000
 30
0.0
  0
INSERT
  5
5EC
  330
163
  100
AcDbEntity
  100
AcDbBlockReference
  8
7_SAL
  2
D332ROUND1_7272X1_7272
 10
1.499
 20
71.229
 30
0.0
  0
INSERT
  5
5ED
  330
163
  100
AcDbEntity
  100
AcDbBlockReference
  8
7_SAL
  2
D332ROUND1_7272X1_7272
 10
1.499
 20
73.769
 30
0.0
  0
INSERT
  5
5EE
  330
163
  100
AcDbEntity
  100
AcDbBlockReference
  8
7_SAL
  2
D332ROUND1_7272X1_7272
 10
1.499
 20
76.309
 30
0.0
  0
INSERT
  5
5EF
  330
163
  100
AcDbEntity
  100
AcDbBlockReference
  8
7_SAL
  2
D332ROUND1_7272X1_7272
 10
60.499
 20
71.229
 30
0.0
  0
INSERT
  5
5F0
  330
163
  100
AcDbEntity
  100
AcDbBlockReference
  8
7_SAL
  2
D332ROUND1_7272X1_7272
 10
60.499
 20
73.769
 30
0.0
  0
INSERT
  5
5F1
  330
163
  100
AcDbEntity
  100
AcDbBlockReference
  8
7_SAL
  2
D332ROUND1_7272X1_7272
 10
60.499
 20
76.309
 30
0.0
  0
INSERT
  5
5F2
  330
163
  100
AcDbEntity
  100
AcDbBlockReference
  8
7_SAL
  2
D333SQUARE1_7272X1_7272
 10
34.999
 20
11.579
 30
0.0
  0
INSERT
  5
5F3
  330
163
  100
AcDbEntity
  100
AcDbBlockReference
  8
7_SAL
  2
D333SQUARE1_7272X1_7272
 10
60.499
 20
60.539
 30
0.0
  0
INSERT
  5
5F4
  330
163
  100
AcDbEntity
  100
AcDbBlockReference
  8
7_SAL
  2
D333SQUARE1_7272X1_7272
 10
60.499
 20
68.689000
 30
0.0
  0
INSERT
  5
5F5
  330
163
  100
AcDbEntity
  100
AcDbBlockReference
  8
7_SAL
  2
D333SQUARE1_7272X1_7272
 10
1.499
 20
68.689000
 30
0.0
  0
INSERT
  5
5F6
  330
163
  100
AcDbEntity
  100
AcDbBlockReference
  8
7_SAL
  2
D333SQUARE1_7272X1_7272
 10
1.499
 20
60.539
 30
0.0
  0
INSERT
  5
5F7
  330
163
  100
AcDbEntity
  100
AcDbBlockReference
  8
7_SAL
  2
D334SQUARE1_4032X1_4032
 10
48.499
 20
15.499
 30
0.0
  0
INSERT
  5
5F8
  330
163
  100
AcDbEntity
  100
AcDbBlockReference
  8
7_SAL
  2
D334SQUARE1_4032X1_4032
 10
44.999
 20
68.999
 30
0.0
  0
INSERT
  5
5F9
  330
163
  100
AcDbEntity
  100
AcDbBlockReference
  8
7_SAL
  2
D334SQUARE1_4032X1_4032
 10
50.999
 20
74.999
 30
0.0
  0
INSERT
  5
5FA
  330
163
  100
AcDbEntity
  100
AcDbBlockReference
  8
7_SAL
  2
D334SQUARE1_4032X1_4032
 10
38.999
 20
74.999
 30
0.0
  0
INSERT
  5
5FB
  330
163
  100
AcDbEntity
  100
AcDbBlockReference
  8
7_SAL
  2
D334SQUARE1_4032X1_4032
 10
26.999
 20
74.999
 30
0.0
  0
INSERT
  5
5FC
  330
163
  100
AcDbEntity
  100
AcDbBlockReference
  8
7_SAL
  2
D334SQUARE1_4032X1_4032
 10
16.999
 20
68.999
 30
0.0
  0
INSERT
  5
5FD
  330
163
  100
AcDbEntity
  100
AcDbBlockReference
  8
7_SAL
  2
D334SQUARE1_4032X1_4032
 10
14.999
 20
74.999
 30
0.0
  0
INSERT
  5
5FE
  330
163
  100
AcDbEntity
  100
AcDbBlockReference
  8
7_SAL
  2
D335ROUND1_7032X1_7032
 10
7.249
 20
28.749
 30
0.0
  0
INSERT
  5
5FF
  330
163
  100
AcDbEntity
  100
AcDbBlockReference
  8
7_SAL
  2
D335ROUND1_7032X1_7032
 10
2.749
 20
28.749
 30
0.0
  0
INSERT
  5
600
  330
163
  100
AcDbEntity
  100
AcDbBlockReference
  8
7_SAL
  2
D335ROUND1_7032X1_7032
 10
2.749
 20
35.249
 30
0.0
  0
INSERT
  5
601
  330
163
  100
AcDbEntity
  100
AcDbBlockReference
  8
7_SAL
  2
D335ROUND1_7032X1_7032
 10
9.409
 20
42.879
 30
0.0
  0
INSERT
  5
602
  330
163
  100
AcDbEntity
  100
AcDbBlockReference
  8
7_SAL
  2
D335ROUND1_7032X1_7032
 10
11.949000
 20
42.879
 30
0.0
  0
INSERT
  5
603
  330
163
  100
AcDbEntity
  100
AcDbBlockReference
  8
7_SAL
  2
D335ROUND1_7032X1_7032
 10
14.489
 20
42.879
 30
0.0
  0
INSERT
  5
604
  330
163
  100
AcDbEntity
  100
AcDbBlockReference
  8
7_SAL
  2
D335ROUND1_7032X1_7032
 10
17.029
 20
42.879
 30
0.0
  0
INSERT
  5
605
  330
163
  100
AcDbEntity
  100
AcDbBlockReference
  8
7_SAL
  2
D335ROUND1_7032X1_7032
 10
19.569
 20
42.879
 30
0.0
  0
INSERT
  5
606
  330
163
  100
AcDbEntity
  100
AcDbBlockReference
  8
7_SAL
  2
D335ROUND1_7032X1_7032
 10
22.109000
 20
42.879
 30
0.0
  0
INSERT
  5
607
  330
163
  100
AcDbEntity
  100
AcDbBlockReference
  8
7_SAL
  2
D335ROUND1_7032X1_7032
 10
24.649
 20
42.879
 30
0.0
  0
INSERT
  5
608
  330
163
  100
AcDbEntity
  100
AcDbBlockReference
  8
7_SAL
  2
D335ROUND1_7032X1_7032
 10
27.189000
 20
42.879
 30
0.0
  0
INSERT
  5
609
  330
163
  100
AcDbEntity
  100
AcDbBlockReference
  8
7_SAL
  2
D335ROUND1_7032X1_7032
 10
29.729000
 20
42.879
 30
0.0
  0
INSERT
  5
60A
  330
163
  100
AcDbEntity
  100
AcDbBlockReference
  8
7_SAL
  2
D335ROUND1_7032X1_7032
 10
32.269
 20
42.879
 30
0.0
  0
INSERT
  5
60B
  330
163
  100
AcDbEntity
  100
AcDbBlockReference
  8
7_SAL
  2
D335ROUND1_7032X1_7032
 10
34.809
 20
42.879
 30
0.0
  0
INSERT
  5
60C
  330
163
  100
AcDbEntity
  100
AcDbBlockReference
  8
7_SAL
  2
D335ROUND1_7032X1_7032
 10
37.349
 20
42.879
 30
0.0
  0
INSERT
  5
60D
  330
163
  100
AcDbEntity
  100
AcDbBlockReference
  8
7_SAL
  2
D335ROUND1_7032X1_7032
 10
39.889000
 20
42.879
 30
0.0
  0
INSERT
  5
60E
  330
163
  100
AcDbEntity
  100
AcDbBlockReference
  8
7_SAL
  2
D335ROUND1_7032X1_7032
 10
42.429000
 20
42.879
 30
0.0
  0
INSERT
  5
60F
  330
163
  100
AcDbEntity
  100
AcDbBlockReference
  8
7_SAL
  2
D335ROUND1_7032X1_7032
 10
44.969
 20
42.879
 30
0.0
  0
INSERT
  5
610
  330
163
  100
AcDbEntity
  100
AcDbBlockReference
  8
7_SAL
  2
D335ROUND1_7032X1_7032
 10
47.509000
 20
42.879
 30
0.0
  0
INSERT
  5
611
  330
163
  100
AcDbEntity
  100
AcDbBlockReference
  8
7_SAL
  2
D335ROUND1_7032X1_7032
 10
50.049
 20
42.879
 30
0.0
  0
INSERT
  5
612
  330
163
  100
AcDbEntity
  100
AcDbBlockReference
  8
7_SAL
  2
D335ROUND1_7032X1_7032
 10
52.589
 20
42.879
 30
0.0
  0
INSERT
  5
613
  330
163
  100
AcDbEntity
  100
AcDbBlockReference
  8
7_SAL
  2
D335ROUND1_7032X1_7032
 10
55.129
 20
42.879
 30
0.0
  0
INSERT
  5
614
  330
163
  100
AcDbEntity
  100
AcDbBlockReference
  8
7_SAL
  2
D335ROUND1_7032X1_7032
 10
55.129
 20
58.119000
 30
0.0
  0
INSERT
  5
615
  330
163
  100
AcDbEntity
  100
AcDbBlockReference
  8
7_SAL
  2
D335ROUND1_7032X1_7032
 10
52.589
 20
58.119000
 30
0.0
  0
INSERT
  5
616
  330
163
  100
AcDbEntity
  100
AcDbBlockReference
  8
7_SAL
  2
D335ROUND1_7032X1_7032
 10
50.049
 20
58.119000
 30
0.0
  0
INSERT
  5
617
  330
163
  100
AcDbEntity
  100
AcDbBlockReference
  8
7_SAL
  2
D335ROUND1_7032X1_7032
 10
47.509000
 20
58.119000
 30
0.0
  0
INSERT
  5
618
  330
163
  100
AcDbEntity
  100
AcDbBlockReference
  8
7_SAL
  2
D335ROUND1_7032X1_7032
 10
44.969
 20
58.119000
 30
0.0
  0
INSERT
  5
619
  330
163
  100
AcDbEntity
  100
AcDbBlockReference
  8
7_SAL
  2
D335ROUND1_7032X1_7032
 10
42.429000
 20
58.119000
 30
0.0
  0
INSERT
  5
61A
  330
163
  100
AcDbEntity
  100
AcDbBlockReference
  8
7_SAL
  2
D335ROUND1_7032X1_7032
 10
39.889000
 20
58.119000
 30
0.0
  0
INSERT
  5
61B
  330
163
  100
AcDbEntity
  100
AcDbBlockReference
  8
7_SAL
  2
D335ROUND1_7032X1_7032
 10
37.349
 20
58.119000
 30
0.0
  0
INSERT
  5
61C
  330
163
  100
AcDbEntity
  100
AcDbBlockReference
  8
7_SAL
  2
D335ROUND1_7032X1_7032
 10
34.809
 20
58.119000
 30
0.0
  0
INSERT
  5
61D
  330
163
  100
AcDbEntity
  100
AcDbBlockReference
  8
7_SAL
  2
D335ROUND1_7032X1_7032
 10
32.269
 20
58.119000
 30
0.0
  0
INSERT
  5
61E
  330
163
  100
AcDbEntity
  100
AcDbBlockReference
  8
7_SAL
  2
D335ROUND1_7032X1_7032
 10
29.729000
 20
58.119000
 30
0.0
  0
INSERT
  5
61F
  330
163
  100
AcDbEntity
  100
AcDbBlockReference
  8
7_SAL
  2
D335ROUND1_7032X1_7032
 10
27.189000
 20
58.119000
 30
0.0
  0
INSERT
  5
620
  330
163
  100
AcDbEntity
  100
AcDbBlockReference
  8
7_SAL
  2
D335ROUND1_7032X1_7032
 10
24.649
 20
58.119000
 30
0.0
  0
INSERT
  5
621
  330
163
  100
AcDbEntity
  100
AcDbBlockReference
  8
7_SAL
  2
D335ROUND1_7032X1_7032
 10
22.109000
 20
58.119000
 30
0.0
  0
INSERT
  5
622
  330
163
  100
AcDbEntity
  100
AcDbBlockReference
  8
7_SAL
  2
D335ROUND1_7032X1_7032
 10
19.569
 20
58.119000
 30
0.0
  0
INSERT
  5
623
  330
163
  100
AcDbEntity
  100
AcDbBlockReference
  8
7_SAL
  2
D335ROUND1_7032X1_7032
 10
17.029
 20
58.119000
 30
0.0
  0
INSERT
  5
624
  330
163
  100
AcDbEntity
  100
AcDbBlockReference
  8
7_SAL
  2
D335ROUND1_7032X1_7032
 10
14.489
 20
58.119000
 30
0.0
  0
INSERT
  5
625
  330
163
  100
AcDbEntity
  100
AcDbBlockReference
  8
7_SAL
  2
D335ROUND1_7032X1_7032
 10
11.949000
 20
58.119000
 30
0.0
  0
INSERT
  5
626
  330
163
  100
AcDbEntity
  100
AcDbBlockReference
  8
7_SAL
  2
D335ROUND1_7032X1_7032
 10
9.409
 20
58.119000
 30
0.0
  0
INSERT
  5
627
  330
163
  100
AcDbEntity
  100
AcDbBlockReference
  8
7_SAL
  2
D335ROUND1_7032X1_7032
 10
6.869
 20
58.119000
 30
0.0
  0
INSERT
  5
628
  330
163
  100
AcDbEntity
  100
AcDbBlockReference
  8
7_SAL
  2
D335ROUND1_7032X1_7032
 10
25.189000
 20
31.269
 30
0.0
  0
INSERT
  5
629
  330
163
  100
AcDbEntity
  100
AcDbBlockReference
  8
7_SAL
  2
D335ROUND1_7032X1_7032
 10
25.189000
 20
28.729000
 30
0.0
  0
INSERT
  5
62A
  330
163
  100
AcDbEntity
  100
AcDbBlockReference
  8
7_SAL
  2
D335ROUND1_7032X1_7032
 10
25.189000
 20
26.189000
 30
0.0
  0
INSERT
  5
62B
  330
163
  100
AcDbEntity
  100
AcDbBlockReference
  8
7_SAL
  2
D335ROUND1_7032X1_7032
 10
32.809
 20
26.189000
 30
0.0
  0
INSERT
  5
62C
  330
163
  100
AcDbEntity
  100
AcDbBlockReference
  8
7_SAL
  2
D335ROUND1_7032X1_7032
 10
32.809
 20
28.729000
 30
0.0
  0
INSERT
  5
62D
  330
163
  100
AcDbEntity
  100
AcDbBlockReference
  8
7_SAL
  2
D335ROUND1_7032X1_7032
 10
32.809
 20
31.269
 30
0.0
  0
INSERT
  5
62E
  330
163
  100
AcDbEntity
  100
AcDbBlockReference
  8
7_SAL
  2
D335ROUND1_7032X1_7032
 10
32.809
 20
33.809
 30
0.0
  0
INSERT
  5
62F
  330
163
  100
AcDbEntity
  100
AcDbBlockReference
  8
7_SAL
  2
D335ROUND1_7032X1_7032
 10
58.249
 20
8.999
 30
0.0
  0
INSERT
  5
630
  330
163
  100
AcDbEntity
  100
AcDbBlockReference
  8
7_SAL
  2
D335ROUND1_7032X1_7032
 10
58.249
 20
5.499
 30
0.0
  0
INSERT
  5
631
  330
163
  100
AcDbEntity
  100
AcDbBlockReference
  8
7_SAL
  2
D336D3361_7018X1_7018
 10
7.249
 20
35.249
 30
0.0
  0
INSERT
  5
632
  330
163
  100
AcDbEntity
  100
AcDbBlockReference
  8
7_SAL
  2
D337SQUARE1_7032X1_7032
 10
11.189
 20
33.889000
 30
0.0
  0
INSERT
  5
633
  330
163
  100
AcDbEntity
  100
AcDbBlockReference
  8
7_SAL
  2
D337SQUARE1_7032X1_7032
 10
45.189
 20
30.809000
 30
0.0
  0
INSERT
  5
634
  330
163
  100
AcDbEntity
  100
AcDbBlockReference
  8
7_SAL
  2
D338ROUND1_7032X1_7032
 10
11.189
 20
16.109000
 30
0.0
  0
INSERT
  5
635
  330
163
  100
AcDbEntity
  100
AcDbBlockReference
  8
7_SAL
  2
D338ROUND1_7032X1_7032
 10
11.189
 20
18.649
 30
0.0
  0
INSERT
  5
636
  330
163
  100
AcDbEntity
  100
AcDbBlockReference
  8
7_SAL
  2
D338ROUND1_7032X1_7032
 10
11.189
 20
21.189000
 30
0.0
  0
INSERT
  5
637
  330
163
  100
AcDbEntity
  100
AcDbBlockReference
  8
7_SAL
  2
D338ROUND1_7032X1_7032
 10
11.189
 20
23.729
 30
0.0
  0
INSERT
  5
638
  330
163
  100
AcDbEntity
  100
AcDbBlockReference
  8
7_SAL
  2
D338ROUND1_7032X1_7032
 10
11.189
 20
26.269
 30
0.0
  0
INSERT
  5
639
  330
163
  100
AcDbEntity
  100
AcDbBlockReference
  8
7_SAL
  2
D338ROUND1_7032X1_7032
 10
11.189
 20
28.809000
 30
0.0
  0
INSERT
  5
63A
  330
163
  100
AcDbEntity
  100
AcDbBlockReference
  8
7_SAL
  2
D338ROUND1_7032X1_7032
 10
11.189
 20
31.349
 30
0.0
  0
INSERT
  5
63B
  330
163
  100
AcDbEntity
  100
AcDbBlockReference
  8
7_SAL
  2
D338ROUND1_7032X1_7032
 10
18.809
 20
26.269
 30
0.0
  0
INSERT
  5
63C
  330
163
  100
AcDbEntity
  100
AcDbBlockReference
  8
7_SAL
  2
D338ROUND1_7032X1_7032
 10
18.809
 20
23.729
 30
0.0
  0
INSERT
  5
63D
  330
163
  100
AcDbEntity
  100
AcDbBlockReference
  8
7_SAL
  2
D338ROUND1_7032X1_7032
 10
18.809
 20
21.189000
 30
0.0
  0
INSERT
  5
63E
  330
163
  100
AcDbEntity
  100
AcDbBlockReference
  8
7_SAL
  2
D338ROUND1_7032X1_7032
 10
18.809
 20
18.649
 30
0.0
  0
INSERT
  5
63F
  330
163
  100
AcDbEntity
  100
AcDbBlockReference
  8
7_SAL
  2
D338ROUND1_7032X1_7032
 10
18.809
 20
16.109000
 30
0.0
  0
INSERT
  5
640
  330
163
  100
AcDbEntity
  100
AcDbBlockReference
  8
7_SAL
  2
D338ROUND1_7032X1_7032
 10
18.809
 20
28.809000
 30
0.0
  0
INSERT
  5
641
  330
163
  100
AcDbEntity
  100
AcDbBlockReference
  8
7_SAL
  2
D338ROUND1_7032X1_7032
 10
18.809
 20
31.349
 30
0.0
  0
INSERT
  5
642
  330
163
  100
AcDbEntity
  100
AcDbBlockReference
  8
7_SAL
  2
D338ROUND1_7032X1_7032
 10
18.809
 20
33.889000
 30
0.0
  0
INSERT
  5
643
  330
163
  100
AcDbEntity
  100
AcDbBlockReference
  8
7_SAL
  2
D338ROUND1_7032X1_7032
 10
45.189
 20
23.189000
 30
0.0
  0
INSERT
  5
644
  330
163
  100
AcDbEntity
  100
AcDbBlockReference
  8
7_SAL
  2
D338ROUND1_7032X1_7032
 10
45.189
 20
25.729000
 30
0.0
  0
INSERT
  5
645
  330
163
  100
AcDbEntity
  100
AcDbBlockReference
  8
7_SAL
  2
D338ROUND1_7032X1_7032
 10
45.189
 20
28.269
 30
0.0
  0
INSERT
  5
646
  330
163
  100
AcDbEntity
  100
AcDbBlockReference
  8
7_SAL
  2
D338ROUND1_7032X1_7032
 10
52.809
 20
23.189000
 30
0.0
  0
INSERT
  5
647
  330
163
  100
AcDbEntity
  100
AcDbBlockReference
  8
7_SAL
  2
D338ROUND1_7032X1_7032
 10
52.809
 20
25.729000
 30
0.0
  0
INSERT
  5
648
  330
163
  100
AcDbEntity
  100
AcDbBlockReference
  8
7_SAL
  2
D338ROUND1_7032X1_7032
 10
52.809
 20
28.269
 30
0.0
  0
INSERT
  5
649
  330
163
  100
AcDbEntity
  100
AcDbBlockReference
  8
7_SAL
  2
D338ROUND1_7032X1_7032
 10
52.809
 20
30.809000
 30
0.0
  0
INSERT
  5
64A
  330
163
  100
AcDbEntity
  100
AcDbBlockReference
  8
7_SAL
  2
D339D3391_60528X1_60528
 10
36.499
 20
35.999
 30
0.0
  0
INSERT
  5
64B
  330
163
  100
AcDbEntity
  100
AcDbBlockReference
  8
7_SAL
  2
D340ROUND1_6032X1_6032
 10
38.999
 20
35.999
 30
0.0
  0
INSERT
  5
64C
  330
163
  100
AcDbEntity
  100
AcDbBlockReference
  8
7_SAL
  2
D340ROUND1_6032X1_6032
 10
41.499
 20
35.999
 30
0.0
  0
INSERT
  5
64D
  330
163
  100
AcDbEntity
  100
AcDbBlockReference
  8
7_SAL
  2
D341ROUND3_70319X3_70319
 10
3.099
 20
6.499
 30
0.0
  0
INSERT
  5
64E
  330
163
  100
AcDbEntity
  100
AcDbBlockReference
  8
7_SAL
  2
D341ROUND3_70319X3_70319
 10
28.099
 20
6.499
 30
0.0
  0
INSERT
  5
64F
  330
163
  100
AcDbEntity
  100
AcDbBlockReference
  8
7_SAL
  2
D342ROUND2_7032X2_7032
 10
42.799
 20
3.584
 30
0.0
  0
INSERT
  5
650
  330
163
  100
AcDbEntity
  100
AcDbBlockReference
  8
7_SAL
  2
D342ROUND2_7032X2_7032
 10
47.499
 20
3.584
 30
0.0
  0
INSERT
  5
651
  330
163
  100
AcDbEntity
  100
AcDbBlockReference
  8
7_SAL
  2
D342ROUND2_7032X2_7032
 10
52.199
 20
3.584
 30
0.0
  0
INSERT
  5
652
  330
163
  100
AcDbEntity
  100
AcDbBlockReference
  8
7_SAL
  2
D342ROUND2_7032X2_7032
 10
47.499
 20
8.414
 30
0.0
  0
INSERT
  5
653
  330
163
  100
AcDbEntity
  100
AcDbBlockReference
  8
7_SAL
  2
D342ROUND2_7032X2_7032
 10
42.799
 20
8.414
 30
0.0
  0
INSERT
  5
654
  330
163
  100
AcDbEntity
  100
AcDbBlockReference
  8
7_SAL
  2
D343SQUARE2_7032X2_7032
 10
52.199
 20
8.414
 30
0.0
  0
INSERT
  5
655
  330
163
  100
AcDbEntity
  100
AcDbBlockReference
  8
7_SAL
  2
D344SQUARE1_4032X1_4032
 10
58.499
 20
26.499
 30
0.0
  0
INSERT
  5
656
  330
163
  100
AcDbEntity
  100
AcDbBlockReference
  8
7_SAL
  2
D344SQUARE1_4032X1_4032
 10
58.999
 20
32.459000
 30
0.0
  0
INSERT
  5
657
  330
163
  100
AcDbEntity
  100
AcDbBlockReference
  8
7_SAL
  2
D344SQUARE1_4032X1_4032
 10
58.999
 20
38.459000
 30
0.0
  0
INSERT
  5
658
  330
163
  100
AcDbEntity
  100
AcDbBlockReference
  8
7_SAL
  2
D345SQUARE1_7032X1_7032
 10
6.869
 20
42.879
 30
0.0
  0
INSERT
  5
659
  330
163
  100
AcDbEntity
  100
AcDbBlockReference
  8
7_SAL
  2
D345SQUARE1_7032X1_7032
 10
58.249
 20
1.999
 30
0.0
  0
INSERT
  5
65A
  330
163
  100
AcDbEntity
  100
AcDbBlockReference
  8
7_SAL
  2
D346SQUARE1_7272X1_7272
 10
26.459000
 20
17.729
 30
0.0
  0
INSERT
  5
65B
  330
163
  100
AcDbEntity
  100
AcDbBlockReference
  8
7_SAL
  2
D346SQUARE1_7272X1_7272
 10
6.869
 20
61.129
 30
0.0
  0
INSERT
  5
65C
  330
163
  100
AcDbEntity
  100
AcDbBlockReference
  8
7_SAL
  2
D347ROUND3_37819X3_37819
 10
6.999
 20
20.199
 30
0.0
  0
INSERT
  5
65D
  330
163
  100
AcDbEntity
  100
AcDbBlockReference
  8
7_SAL
  2
D347ROUND3_37819X3_37819
 10
54.999
 20
20.199
 30
0.0
  0
INSERT
  5
65E
  330
163
  100
AcDbEntity
  100
AcDbBlockReference
  8
7_SAL
  2
D347ROUND3_37819X3_37819
 10
54.999
 20
68.199
 30
0.0
  0
INSERT
  5
65F
  330
163
  100
AcDbEntity
  100
AcDbBlockReference
  8
7_SAL
  2
D347ROUND3_37819X3_37819
 10
6.999
 20
68.199
 30
0.0
  0
INSERT
  5
660
  330
163
  100
AcDbEntity
  100
AcDbBlockReference
  8
7_SAL
  2
D348ROUND1_4732X1_4732
 10
14.512
 20
28.809000
 30
0.0
  0
INSERT
  5
661
  330
163
  100
AcDbEntity
  100
AcDbBlockReference
  8
7_SAL
  2
D348ROUND1_4732X1_4732
 10
21.999000
 20
20.571
 30
0.0
  0
INSERT
  5
662
  330
163
  100
AcDbEntity
  100
AcDbBlockReference
  8
7_SAL
  2
D348ROUND1_4732X1_4732
 10
45.249
 20
18.993000
 30
0.0
  0
INSERT
  5
663
  330
163
  100
AcDbEntity
  100
AcDbBlockReference
  8
7_SAL
  2
D348ROUND1_4732X1_4732
 10
47.076
 20
20.826
 30
0.0
  0
INSERT
  5
664
  330
163
  100
AcDbEntity
  100
AcDbBlockReference
  8
7_SAL
  2
D348ROUND1_4732X1_4732
 10
29.729000
 20
47.959000
 30
0.0
  0
INSERT
  5
665
  330
163
  100
AcDbEntity
  100
AcDbBlockReference
  8
7_SAL
  2
D348ROUND1_4732X1_4732
 10
23.249000
 20
55.499
 30
0.0
  0
INSERT
  5
666
  330
163
  100
AcDbEntity
  100
AcDbBlockReference
  8
7_SAL
  2
D348ROUND1_4732X1_4732
 10
6.749
 20
45.749
 30
0.0
  0
INSERT
  5
667
  330
163
  100
AcDbEntity
  100
AcDbBlockReference
  8
7_SAL
  2
D348ROUND1_4732X1_4732
 10
2.749
 20
66.499
 30
0.0
  0
INSERT
  5
668
  330
163
  100
AcDbEntity
  100
AcDbBlockReference
  8
7_SAL
  2
D348ROUND1_4732X1_4732
 10
6.249
 20
76.749
 30
0.0
  0
INSERT
  5
669
  330
163
  100
AcDbEntity
  100
AcDbBlockReference
  8
7_SAL
  2
D348ROUND1_4732X1_4732
 10
42.909
 20
51.987
 30
0.0
  0
INSERT
  5
66A
  330
163
  100
AcDbEntity
  100
AcDbBlockReference
  8
7_SAL
  2
D348ROUND1_4732X1_4732
 10
52.917000
 20
55.518000
 30
0.0
  0
INSERT
  5
66B
  330
163
  100
AcDbEntity
  100
AcDbBlockReference
  8
7_SAL
  2
D348ROUND1_4732X1_4732
 10
54.542000
 20
55.95
 30
0.0
  0
INSERT
  5
66C
  330
163
  100
AcDbEntity
  100
AcDbBlockReference
  8
7_SAL
  2
D348ROUND1_4732X1_4732
 10
57.54
 20
54.943000
 30
0.0
  0
INSERT
  5
66D
  330
163
  100
AcDbEntity
  100
AcDbBlockReference
  8
7_SAL
  2
D348ROUND1_4732X1_4732
 10
43.499
 20
76.828
 30
0.0
  0
ENDSEC
  0
SECTION
  2
OBJECTS
  0
DICTIONARY
  5
66E
  330
0
  100
AcDbDictionary
  281
1
  3
ACAD_GROUP
  350
66F
  3
ACAD_LAYOUT
  350
670
  3
ACAD_MLINESTYLE
  350
671
  3
ACAD_PLOTSETTINGS
  350
672
  3
ACAD_PLOTSTYLENAME
  350
673
  0
DICTIONARY
  5
66F
  102
{ACAD_REACTORS
  330
66E
  102
}
  330
66E
  100
AcDbDictionary
  281
1
  0
DICTIONARY
  5
670
  102
{ACAD_REACTORS
  330
66E
  102
}
  330
66E
  100
AcDbDictionary
  281
1
  3
Model
  350
165
  3
Layout1
  350
166
  0
LAYOUT
  5
165
  102
{ACAD_REACTORS
  330
670
  102
}
  330
670
  100
AcDbPlotSettings
  1

  2

  4

  6

  40
0
  41
0
  42
0
  43
0
  44
0
  45
0
  46
0
  47
0
  48
0
  49
0
  140
0
  141
0
  142
1
  143
1
  70
1712
  72
0
  73
0
  74
0
  7

  75
1
  147
0
  148
0
  149
0
  100
AcDbLayout
  1
Model
  70
1
  71
0
  10
0
  20
0
  11
12
  21
9
  12
0
  22
0
  32
0
  14
0
  24
0
  34
0
  15
0
  25
0
  35
0
  146
0
  13
0
  23
0
  33
0
  16
1
  26
0
  36
0
  17
0
  27
1
  37
0
  76
0
  330
163
  0
LAYOUT
  5
166
  102
{ACAD_REACTORS
  330
78
  102
}
  330
670
  100
AcDbPlotSettings
  1

  2

  4

  6

  40
0
  41
0
  42
0
  43
0
  44
0
  45
0
  46
0
  47
0
  48
0
  49
0
  140
0
  141
0
  142
1
  143
1
  70
1712
  72
0
  73
0
  74
0
  7

  75
1
  147
0
  148
0
  149
0
  100
AcDbLayout
  1
Layout1
  70
1
  71
0
  10
0
  20
0
  11
12
  21
9
  12
0
  22
0
  32
0
  14
0
  24
0
  34
0
  15
0
  25
0
  35
0
  146
0
  13
0
  23
0
  33
0
  16
1
  26
0
  36
0
  17
0
  27
1
  37
0
  76
0
  330
164
  0
DICTIONARY
  5
671
  102
{ACAD_REACTORS
  330
66E
  102
}
  330
66E
  100
AcDbDictionary
  281
1
  3
STANDARD
  350
674
  0
MLINESTYLE
  5
674
  102
{ACAD_REACTORS
  330
671
  102
}
  330
671
  100
AcDbMlineStyle
  2
STANDARD
  70
0
  3

  62
256
  51
90
  52
90
  71
2
  49
0.5
  62
256
  6
BYLAYER
  49
-0.5
  62
256
  6
BYLAYER
  0
DICTIONARY
  5
672
  102
{ACAD_REACTORS
  330
66E
  102
}
  330
66E
  100
AcDbDictionary
  281
1
  0
ACDBDICTIONARYWDFLT
  5
673
  102
{ACAD_REACTORS
  330
66E
  102
}
  330
66E
  100
AcDbDictionary
  281
1
  3
Normal
  350
675
  100
AcDbDictionaryWithDefault
  340
675
  0
ACDBPLACEHOLDER
  5
675
  102
{ACAD_REACTORS
  330
673
  102
}
  330
673
  0
ENDSEC
  0
EOF
